Guitar Tabs, Chords and Lyrics
Server problems seems to be fixed. Chordie has been experiencing problems with songs disappearing. These issues now seems to be fixed, but still verifying the fix. If you find anything strange, please email admin@chordie.com.


Funeral Song  The Rasmus

Funeral Song
The Rasmus
Intro
 
 E------------------------------------------------|
 B-8------------------------------------------8vr-|
 G----8-10??10/12vr--10vr--10-8-7-7h8r--8-7-5------| x2
 D------------------------------------------------|
 A------------------------------------------------|
 E------------------------------------------------|
 E-------------|
 B---------20r-|
 G-20-19-17----|
 D-------------|
 A-------------|
 E-------------|

Verse
[G#] I dumped you a[G]gain
[C#] I don't unde[C]rstand
[G#] It's happened [G]before
[C#] Can't take i[C]t no more
[G#] These foolish [D#]games
[C#] Always end up in c[C]onfusion
[G#] I'll take you [C#]back
Just to [G]leave you once again
Chorus
[Cm] I died in my [G#]dreams
What's that supposed to [D#]mean?
Got lost in the [Bb]fi - [G]re
[Cm] I died in my [G#]dreams
Reaching out for your [D#]hand
My fatal [Bb]desi[G]re
 
 E------------------------------------------------|
 B-8------------------------------------------8vr-|
 G----8-10??10/12vr--10vr--10-8-7-7h8r--8-7-5------| x2
 D------------------------------------------------|
 A------------------------------------------------|
 E------------------------------------------------|
 E-------------|
 B---------20r-|
 G-20-19-17----|
 D-------------|
 A-------------|
 E-------------|

Verse
[G#]I've failed you a[G]gain
[C#]Cause I let you[C] stay
[G#]I used to pretend[G]
[C#]That I felt oka[C]y
[G#]Just one big lie[D#]
[C#]Such a perfect illusi[C]on
[G#]I made you mine[C#]
Just to hur[G]t you once again
Chorus
[Cm] I died in my [G#]dreams
What's that supposed to [D#]mean?
Got lost in the [Bb]fi - [G]re
[Cm] I died in my [G#]dreams
Reaching out for your [D#]hand
My fatal [Bb]desi[G]re
 
 E------------------------------------------------|
 B-8------------------------------------------8vr-|
 G----8-10??10/12vr--10vr--10-8-7-7h8r--8-7-5------| x2
 D------------------------------------------------|
 A------------------------------------------------|
 E------------------------------------------------|
 E-------------|
 B---------20r-|
 G-20-19-17----|
 D-------------|
 A-------------|
 E-------------|


Important: The song above is NOT stored on the Chordie server. The original song is hosted at www.azchords.com. Chordie works as a search engine and provides on-the-fly formatting. Chordie does not index songs against artists'/composers' will. To remove this song please click here.

Text color:
Chord color:
Chord grids: 
Font size:    
Page size: 

Bb C C# Cm D# G G#
Rate #1 of 7 versions

Jango Player

Login - add to songbook

SHARE PAGE  




You need to log in to post comments