Guitar Tabs, Chords and Lyrics
Server problems seems to be fixed. Chordie has been experiencing problems with songs disappearing. These issues now seems to be fixed, but still verifying the fix. If you find anything strange, please email admin@chordie.com.


Ghost of Love  The Rasmus

Here we go...
Piano Intro:
 
 e|-9---9---9---10----|
 B|---7---7---7----7--|
 G|-------------------|
 D|-------------------| x2
 A|-------------------|
 E|-------------------|

Main Riff (Keep the piano intro going):
 
 e|---------------------------------|
 B|---------------------------------|
 G|---------------------------------|
 D|-4---------------4---------------| x2
 A|---4---------------4-------------|
 E|-----2--2-2-2-0------2--2-2-2-0--|

[Bm] I a[A]m ne[Ab]ar yo[F#m]u
[Bm] You do[A]n't [Ab]see m[F#m]e
[D]Can [C#]you [B]feel [A]me
[Bm]I'm clos[A]er than c[Ab]lose
[D]Does it hurt?
[E]Does it burn?
[F#m]Do you know
[C#m]What you've lost?
[D]Are you scared of the d[E]ark?
[F#m] Now that you're g[A]one
All that re[E]mains
Is the gh[Bm]ost o[C#]f love
[F#m] Deep in my m[A]ind
I hear the c[E]hains
Of the gh[Bm]ost of[C#] love[F#m]
[Bm] You a[A]re f[Ab]alling[F#m]
[Bm]Down [A]und[Ab]erneat[F#m]h
[D]You'll [C#]be cr[B]awlin[A]g
[Bm]Lowe[A]r than [Ab]low
[D]Can you sleep
[E]Can you breathe
[F#m]When you know
[C#m]What you've done?
[D]Tell me where will yo[E]u run
[F#m] Now that you're g[A]one
All that re[E]mains
Is the gh[Bm]ost o[C#]f love
[F#m] Deep in my m[A]ind
I hear the c[E]hains
Of the gh[Bm]ost of[C#] love[F#m]
[G]You we[F]re fl[E]awles[D]s
[G]Cruel a[F]nd tho[E]ughtl[D]ess
And [G]all [F]that [E]you le[D]ft me
[Bb] Is the Gh[C]ost of love
[F#m] I'm fading
[A] I'm barely br[E]eathing
[Bm] Can't h[C#]old on[F#m]
[F#m] I'm dying
[A] I must be bl[E]eeding
[Bm] Won't [C#]be l[F#n]ong
[F#m] Now that you're g[A]one
All that re[E]mains
Is the gh[Bm]ost o[C#]f love
[F#m] Deep in my m[A]ind
I hear the c[E]hains
Of the gh[Bm]ost of[C#] love[F#m]
 
 e|---------------------------------|
 B|---------------------------------|
 G|---------------------------------|
 D|-4---------------4---------------| x2
 A|---4---------------4-------------|
 E|-----2--2-2-2-0------2--2-2-2-0--|

later i will do it better
i tabbed this fast and maybe i made some mistake.

Important: The song above is NOT stored on the Chordie server. The original song is hosted at www.azchords.com. Chordie works as a search engine and provides on-the-fly formatting. Chordie does not index songs against artists'/composers' will. To remove this song please click here.

Text color:
Chord color:
Chord grids: 
Font size:    
Page size: 

A Ab B Bb Bm C C# C#m D E F F#m G
Rate #1 of 1 versions

Jango Player

Login - add to songbook

SHARE PAGE  




You need to log in to post comments