Guitar Tabs, Chords and Lyrics
Server problems seems to be fixed. Chordie has been experiencing problems with songs disappearing. These issues now seems to be fixed, but still verifying the fix. If you find anything strange, please email admin@chordie.com.


Last Generation  The Rasmus

Something cool:
Have you ever used transfer chords?
These are suspendeds and 5ths and 9ths etc.
The C-Am transfer chord looks like this:
 
 e|--0-----------------
 b|--1------------------
 g|--0-----------------
 d|--0-----------------
 a|--2-----------------
 E|--------------------

Intro/Interlude: (intro is a bit tough for beginners)
 
 e|-----------------------------------------------------]
 b|-----1-----------------------------------------------]
 g|---------2--------2----3----2------------------------]
 d|-------------2-------------------2----1---0----------]
 a|-3---------------------------------------------------]
 E|-----------------------------------------------------] x2

Verse 1:
[Am]We stopped and [Dm]left the car
[C]Last thing I, c[G]an recall
[Am]A raging wave o[Dm]f light
[C]Vapourized, all[G] this life
 
 ---------------------------------------

Bridge:
We r[F]an into the f[G]ield
Inca[F]pable to brea[G]the
 
 ---------------------------------------

Chorus:
[Am]Rest in peace, it's all [Dm]over no
G C (C-Am tc) Am
It's the end of salvation
[Am]Memories and the pho[Dm]tographs
G C (C-Am tc) Am
Of the last generation
[Am]Of the last gen[F]eratio[C]n[G]
 
 ---------------------------------------

INTERLUDE
 
 ---------------------------------------

Verse 2:
[Am]I've seen this [Dm]in my dream
[C]A petrified, fa[G]mily
[Am]Pointing ha[Dm]nds at me
[C]Victims of, the[G] tragedy
 
 ---------------------------------------

Bridge 2:
Dust[F] replaced the[G]ir souls
Hear[F]ts turned int[G]o stones
 
 ---------------------------------------

REPEAT CHORUS
 
 ---------------------------------------

Bridge 3:
Dust[F] replaced the[G]ir souls
Mind[F]s turned into[G] stone
 
 ---------------------------------------

REPEAT CHORUS
 
 ---------------------------------------

enjoy it, it's a great song!

Important: The song above is NOT stored on the Chordie server. The original song is hosted at www.azchords.com. Chordie works as a search engine and provides on-the-fly formatting. Chordie does not index songs against artists'/composers' will. To remove this song please click here.

Text color:
Chord color:
Chord grids: 
Font size:    
Page size: 

Am C Dm F G
Rate #1 of 2 versions

Login - add to songbook

SHARE PAGE  



You need to log in to post comments