Guitar Tabs, Chords and Lyrics
Major upgrade!! After one year development the new version of Chordie is now online! Please give feedback.


Someone Else  The Rasmus

The Rasmus
Someone Else
Intro
Yeah, yeah, yeah, yeah.
 
 e|---1-------0-------1-------3------|
 B|---1-------1-------3-------3------|
 G|---3-------3-------3-------3------|
 D|---3-------3-------3-------3------|
 A|----------------------------------|
 E|----------------------------------|

Verse
[Dm] She drinks the blood of the [C] dinosaurs to get her
 
 e|-----------------------------------------------------------|
 B|-----------------------------------------------------------|
 G|-----------------------------------------------------------|
 D|-----------------------------------------------------------|
 A|--8---8---8---8---8---8---8---8---7--7--7--7--7--7--7--7---|
 E|-----------------------------------------------------------|

[A#]powers back to make her [F]boyfriend un[C]derstand.
 
 e|------------------------------------------------------------|
 B|------------------------------------------------------------|
 G|------------------------------------------------------------|
 D|------------------------------------------------------------|
 A|-5---5---5---5---5---5---5---5-----8--8--8--8--7--7--7--7---|
 E|------------------------------------------------------------|

[Dm]that things are not what they used [C]to be. She doesn't
 
 e|---------------------------------------------------------------|
 B|---------------------------------------------------------------|
 G|---------------------------------------------------------------|
 D|--7---7---7---7---7---7---7---7------5--5--5--5--5--5--5--5----|
 A|--8---8---8---8---8---8---8---8------7--7--7--7--7--7--7--7----|
 E|---------------------------------------------------------------|

h[A#]ave a plan to make her b[F]oyfriend und[C]erstand.
 
 e|------------------------------------------------------------|
 B|------------------------------------------------------------|
 G|------------------------------------------------------------|
 D|-3---3---3---3---3---3---3---3-----7--7--7--7--5--5--5--5---|
 A|-5---5---5---5---5---5---5---5-----8--8--8--8--7--7--7--7---|
 E|------------------------------------------------------------|

[A#]  
 
 e|--------------0---------------------------0---------------------|
 B|--------6-----------6--------------6--------------6-------------|
 G|--3-------------------------3-----------------------------------|
 D|----------------------------------------------------------------|
 A|----------------------------------------------------------------|
 E|----------------------------------------------------------------|

Those same chords keep going until the chorus.

Important: The song above is NOT stored on the Chordie server. The original song is hosted at www.azchords.com. Chordie works as a search engine and provides on-the-fly formatting. Chordie does not index songs against artists'/composers' will. To remove this song please click here.

Text color:
Chord color:
Chord grids: 
Font size:    
Page size: 

A# C Dm F
Rate #1 of 6 versions

Jango Player

Login - add to songbook

SHARE PAGE  




You need to log in to post comments