Guitar Tabs, Chords and Lyrics
Major upgrade!! After one year development the new version of Chordie is now online! Please give feedback.


Dosed  Red Hot Chili Peppers

Red Hot Chili Peppers
Dosed
"By the Way"
intro:
Guitar 1:
 
 e -12-----12-----12-----12----------------------------------
 b ------12-----12-----12-----12-----12-----12-----12-----12-
 g ----12-----12-----12-----12-----12-----12-----12-----12---
 d ------------------------------12-----12-----14-----14-----
 a ----------------------------------------------------------
 e ----------------------------------------------------------

Guitar 2: riff 1
 
 e ----------------------------------------------------------
 b ------------------------------0------0------3----0----0---

fourth time, he goes: riff 2
 
 e ----------------------------------------------------------
 b ------------------------------0------0------3----5----0---

Guitar 3:
d -5-4-2-0-2 over and over
verse: guitar 1 and 3 play same thing
I got dosed by you, and closer than most to you
 
 e ----------10------------------------------10----------
 b ------------------7--8--------------------------7--8--
 g ------------------------------------------------------

What am I supposed to do, take it away, i never had it anyway
 
 e ---------------10-----------------------------19-17-15--14-15----
 b ----------------------7--8---------------------------------------
 g -----------------------------------------------------------------

Take it way, i never had it anyway
 
 e ---------------15-14-12-10--12--------------
 b ----------------------------------------
 g ------------------------------------------

then back to the intro, where guitar 2 plays riff 1 twice
2nd verse is exactly the same
Chorus:
Guitar 1 strums chord symbols, while guitar 2 plays leads
(i cant figure out the leads too well, tho), its in E minor
[G]Way up on the [D]mountain where she [Em]died [C]
[G]All I ever [D]wanted was your [Em]life[C]
[G]Deep inside the [D]canyon I cant [Em]hide[C]
[G]All I ever [D]wanted was your [Em]life[C]
verse 3 is the same as the others
chorus is the same, except for at the end
[G]Deep inside the [D]canyon I cant [Em]hide[C]
[G]All I ever [D]wanted was your [Em]life[G]
then intro, guitar 1 plays riff 1 then riff 2
last verse, just like all the others
chorus...like the second chorus, end with Em-G
guitar solo-outro thing: guitar 1 and 3 play verse
 
 e -------------------------------------------------------
 b -5-3-5-3-5-3-5-3-5-3-0-0-----5-3-5-3-5-3-5-3-5-3-0-0---
 g -------------------------------------------------------
 d -------------------------------------------------------
 e -------------------------------------------------------
 b -------------------------------3-5--3--5--3--5-3--0-0--
 g -5-5-5-5--5--4-----------------4-5--4--5--4--5-4-------
 d ----------------5-5-5-4-5-5----------------------------
 e -------------------------------------------------------
 b -5-3-5-3-5-3-5-3-5-3-0-0---0--5-3-5-3-5-3-5-3-5-3-0-0--
 g -------------------------------------------------------
 d -------------------------------------------------------

then guitar 1 changes while guitar 3 drops out (chord symbols)
[C] [C/B] [Am] [G]  
 
 e -------------------------------------------------------
 b -3---3--3--3--2^2^2^2^---------------3-----------------
 g ------------------------4----4^--2---------------------
 d -------------------------------------------------------

C/B (x255xx)
might concern this tab. im thetragichero on the forum

Important: The song above is NOT stored on the Chordie server. The original song is hosted at www.azchords.com. Chordie works as a search engine and provides on-the-fly formatting. Chordie does not index songs against artists'/composers' will. To remove this song please click here.

Text color:
Chord color:
Chord grids: 
Font size:    
Page size: 

Am C C/B D Em G
Rate #1 of 12 versions

Jango Player

Login - add to songbook

SHARE PAGE  



You need to log in to post comments