Guitar Tabs, Chords and Lyrics
Server problems seems to be fixed. Chordie has been experiencing problems with songs disappearing. These issues now seems to be fixed, but still verifying the fix. If you find anything strange, please email admin@chordie.com.


Feasting on the Flowers  Red Hot Chili Peppers

[C#m] [B] [A] 
 
 ---------staccato style------------
 e|----------------------------------------x-7-x-7-x-x-7-7-x-7-x-5-x-x-5-5-x-x----|
 B|----------------------------------------x-7-x-7-x-x-7-7-x-7-x-5-x-x-5-5-x-x----|
 G|--------------------------------11/13~--x-8-x-8-x-x-8-8-x-8-x-6-x-x-6-6-x-x----|
 D|----------------------11-9-11-x---------x-9-x-9-x-x-9-9-x-9-x-7-x-x-7-7-x-x----|
 A|-11-9-11-x---------------------------------------------------------------------|
 E|-----------12-11-12-x----------------------------------------------------------|
 e|--------------------------------------------x-7-x-x-7-7-x-x-x-x-x-x-9-9-x-x----|
 B|--------------------9-7---------------------x-7-x-x-7-7-x-x-x-x-x-x-1010x-x----|
 G|-----------9-8----------9-x-9-8-------------x-8-x-x-8-8-x-x-x-x-x-x-9-9-x-x----|
 D|---------------11-x-------------9-----------x-9-x-x-9-9-x-9-x-11x-x-1111x-x----|
 A|-11-9-11-x---------------------------------------------------------------------|
 E|-------------------------------------------------------------------------------|

[Verse] 
 
 e|-------------------------------------------------------------------------------|
 B|-----5-----5-----5-----5-----5-------4-----4-----2-----2-----2-----------------|
 G|-------6-----6-----6-----6-----6-------4-----4-----2-----2-----2---------------|
 D|---6-----6-----6-----6-----6-------4-----4-----4-----2-----2-------------------|
 A|-4-------------------------------2---------------------------------------------|
 E|-------------------------------------------------------------------------------|
 e|-------------------------------------------------------------------------------|
 B|-----5-----5-----5-----5-----5-------4-----4-----2-----2-----2-----------------|
 G|-------6-----6-----6-----6-----6-------4-----4-----2-----2-----2---------------|
 D|---6-----6-----6-----6-----6-------4-----4-----4-----2-----2-------------------|
 A|-4-------------------------------2---------------------------------------------|
 E|-------------------------------------------------------------------------------|
 e|-------------------------------------------------------------------------------|
 B|-----5-----5-----5-----5-----5-------4-----4-----2-----2-----2-----------------|
 G|-------6-----6-----6-----6-----6-------4-----4-----2-----2-----2---------------|
 D|---6-----6-----6-----6-----6-------4-----4-----4-----2-----2-------------------|
 A|-4-------------------------------2---------------------------------------------|
 E|-------------------------------------------------------------------------------|
 e|-------------------------------------------------------------------------------|
 B|-----5-----5-----5-----5-----5-------------------------------------------------|
 G|-------6-----6-----6-----6-----6-----------------------------------------------|
 D|---6-----6-----6-----6-----6---------------------------------------------------|
 A|-4-------------------------------x---------------------------------------------|
 E|-------------------------------------------------------------------------------|

[Cborus] (1:36)
Rhythm Guitar
With Vibe effect and/or some wahwah
[E] [D] [F#m] [C#m] 
 
 e|-0---------------2---------------2---------------4-----------------------------|
 B|-0---------------3---------------2---------------5-----------------------------|
 G|-1---------------2---------------2---------------6-----------------------------|
 D|-2---------------0---------------4---------------6-----------------------------|
 A|-2---------------0---------------4---------------4-----------------------------|
 E|-0-------------------------------2---------------------------------------------|

[E] [D] [F#m] [G#7] 
 
 e|-0---------------2---------------2---------------4-----------------------------|
 B|-0---------------3---------------2---------------4-----------------------------|
 G|-1---------------2---------------2---------------5-----------------------------|
 D|-2---------------0---------------4---------------6-----------------------------|
 A|-2---------------0---------------4---------------6-----------------------------|
 E|-0-------------------------------2---------------4-----------------------------|

Lead Guitar (1:47)
 
 e|-------------------------------------------------------------------------------|
 B|-----------------------12----10-9----------10pbr9-9----------------------------|
 G|--13pbr11~-11b13------------------9-11~-------------11-11-9-11~----------------|
 D|-------------------------------------------------------------------------------|
 A|-------------------------------------------------------------------------------|
 E|-------------------------------------------------------------------------------|

let them ring
 
 e|-------------------------------------------------------------------------------|
 B|--10pbr9-9-7-9~---------13~------14~---16~----------\--------------------------|
 G|-------------------------------------------------------------------------------|
 D|-------------------------------------------------------------------------------|
 A|-------------------------------------------------------------------------------|
 E|-------------------------------------------------------------------------------|

[Interlude] 
[C#m] [B] [A] 
 
 ---------staccato style------------
 e|----------------------------------------x-7-x-7-x-x-7-7-x-7-x-5-x-x-5-5-x-x----|
 B|----------------------------------------x-7-x-7-x-x-7-7-x-7-x-5-x-x-5-5-x-x----|
 G|--------------------------------11/13~--x-8-x-8-x-x-8-8-x-8-x-6-x-x-6-6-x-x----|
 D|----------------------11-9-11-x---------x-9-x-9-x-x-9-9-x-9-x-7-x-x-7-7-x-x----|
 A|-11-9-11-x---------------------------------------------------------------------|
 E|-----------12-11-12-x----------------------------------------------------------|
 e|--------------------------------------------x-7-x-x-7-7-x-x-x-x-x-x-9-9-x-x----|
 B|--------------------9-7---------------------x-7-x-x-7-7-x-x-x-x-x-x-1010x-x----|
 G|-----------9-8----------9-x-9-8-------------x-8-x-x-8-8-x-x-x-x-x-x-9-9-x-x----|
 D|---------------11-x-------------9-----------x-9-x-x-9-9-x-9-x-11x-x-1111x-x----|
 A|-11-9-11-x---------------------------------------------------------------------|
 E|-------------------------------------------------------------------------------|

[Verse] 
 
 e|-------------------------------------------------------------------------------|
 B|-----5-----5-----5-----5-----5-------4-----4-----2-----2-----2-----------------|
 G|-------6-----6-----6-----6-----6-------4-----4-----2-----2-----2---------------|
 D|---6-----6-----6-----6-----6-------4-----4-----4-----2-----2-------------------|
 A|-4-------------------------------2---------------------------------------------|
 E|-------------------------------------------------------------------------------|
 e|-------------------------------------------------------------------------------|
 B|-----5-----5-----5-----5-----5-------4-----4-----2-----2-----2-----------------|
 G|-------6-----6-----6-----6-----6-------4-----4-----2-----2-----2---------------|
 D|---6-----6-----6-----6-----6-------4-----4-----4-----2-----2-------------------|
 A|-4-------------------------------2---------------------------------------------|
 E|-------------------------------------------------------------------------------|
 e|-------------------------------------------------------------------------------|
 B|-----5-----5-----5-----5-----5-------4-----4-----2-----2-----2-----------------|
 G|-------6-----6-----6-----6-----6-------4-----4-----2-----2-----2---------------|
 D|---6-----6-----6-----6-----6-------4-----4-----4-----2-----2-------------------|
 A|-4-------------------------------2---------------------------------------------|
 E|-------------------------------------------------------------------------------|
 e|-------------------------------------------------------------------------------|
 B|-----5-----5-----5-----5-----5-------4-----4-----2-----2-----2-----------------|
 G|-------6-----6-----6-----6-----6-------4-----4-----2-----2-----2---------------|
 D|---6-----6-----6-----6-----6-------4-----4-----4-----2-----2-------------------|
 A|-4-------------------------------2---------------------------------------------|
 E|-------------------------------------------------------------------------------|

[Cborus] 
Rhythm Guitar
With Vibe effect and/or some wahwah
[E] [D] [F#m] [C#m] 
 
 e|-0---------------2---------------2---------------4-----------------------------|
 B|-0---------------3---------------2---------------5-----------------------------|
 G|-1---------------2---------------2---------------6-----------------------------|
 D|-2---------------0---------------4---------------6-----------------------------|
 A|-2---------------0---------------4---------------4-----------------------------|
 E|-0-------------------------------2---------------------------------------------|

[E] [D] [F#m] [G#7] 
 
 e|-0---------------2---------------2---------------4-----------------------------|
 B|-0---------------3---------------2---------------4-----------------------------|
 G|-1---------------2---------------2---------------5-----------------------------|
 D|-2---------------0---------------4---------------6-----------------------------|
 A|-2---------------0---------------4---------------6-----------------------------|
 E|-0-------------------------------2---------------4-----------------------------|

Lead Guitar
 
 e|-------------------------------------------------------------------------------|
 B|-----------------------12----10-9----------10pbr9-9----------------------------|
 G|--13pbr11~-11b13------------------9-11~-------------11-11-9-11~----------------|
 D|-------------------------------------------------------------------------------|
 A|-------------------------------------------------------------------------------|
 E|-------------------------------------------------------------------------------|

let them ring
 
 e|-------------------------------------------------------------------------------|
 B|--10pbr9-9-7-9~---------13~------14~---16~----------\--------------------------|
 G|-------------------------------------------------------------------------------|
 D|-------------------------------------------------------------------------------|
 A|-------------------------------------------------------------------------------|
 E|-------------------------------------------------------------------------------|

[Bridge] 
Rhythm Guitar
[C#m] [G#7] [F#sus2] [E] 
 
 e|-4---------------4---------------4---------------4--------------------------|
 B|-5---------------4---------------7---------------5--------------------------|
 G|-6---------------5---------------6---------------4--------------------------|
 D|-6---------------4---------------4---------------6--------------------------|
 A|-4--------------(6)-------------(4)-------------(7)-------------------------|
 E|----------------------------------------------------------------------------|

Lead Guitar
 
 e|----------------------------------------------------------------------------|
 B|-------------12b14r12------------------------14b16r14-----------------------|
 G|--11-13-11-------------13~--------11-13-11-------------13~------------------|
 D|----------------------------------------------------------------------------|
 A|----------------------------------------------------------------------------|
 E|----------------------------------------------------------------------------|
 e|----------------------------------------------------------------------------|
 B|-------------16b17r16--14~--------12-14-12----------------------------------|
 G|--11-13-11-----------------------------------11/13~-------------------------|
 D|----------------------------------------------------------------------------|
 A|----------------------------------------------------------------------------|
 E|----------------------------------------------------------------------------|

repeat 3x
[Interlude] 
play sorrounding strings muted and simultanously (chicken scratching)
[C#m] [B] [A] 
 
 ---------staccato style------------
 e|----------------------------------------x-7-x-7-x-x-7-7-x-7-x-5-x-x-5-5-x-x----|
 B|----------------------------------------x-7-x-7-x-x-7-7-x-7-x-5-x-x-5-5-x-x----|
 G|--------------------------------11/13~--x-8-x-8-x-x-8-8-x-8-x-6-x-x-6-6-x-x----|
 D|----------------------11-9-11-x---------x-9-x-9-x-x-9-9-x-9-x-7-x-x-7-7-x-x----|
 A|-11-9-11-x---------------------------------------------------------------------|
 E|-----------12-11-12-x----------------------------------------------------------|
 e|--------------------------------------------x-7-x-x-7-7-x-x-x-x-x-x-9-9-x-x----|
 B|--------------------9-7---------------------x-7-x-x-7-7-x-x-x-x-x-x-1010x-x----|
 G|-----------9-8----------9-x-9-8-------------x-8-x-x-8-8-x-x-x-x-x-x-9-9-x-x----|
 D|---------------11-x-------------9-----------x-9-x-x-9-9-x-9-x-11x-x-1111x-x----|
 A|-11-9-11-x---------------------------------------------------------------------|
 E|-------------------------------------------------------------------------------|

[Cborus] 
Rhythm Guitar
With Vibe effect and/or some wahwah
[E] [D] [F#m] [C#m] 
 
 e|-0---------------2---------------2---------------4-----------------------------|
 B|-0---------------3---------------2---------------5-----------------------------|
 G|-1---------------2---------------2---------------6-----------------------------|
 D|-2---------------0---------------4---------------6-----------------------------|
 A|-2---------------0---------------4---------------4-----------------------------|
 E|-0-------------------------------2---------------------------------------------|

[E] [D] [F#m] [G#7] 
 
 e|-0---------------2---------------2---------------4-----------------------------|
 B|-0---------------3---------------2---------------4-----------------------------|
 G|-1---------------2---------------2---------------5-----------------------------|
 D|-2---------------0---------------4---------------6-----------------------------|
 A|-2---------------0---------------4---------------6-----------------------------|
 E|-0-------------------------------2---------------4-----------------------------|

Lead Guitar
 
 e|-------------------------------------------------------------------------------|
 B|-----------------------12----10-9----------10pbr9-9----------------------------|
 G|--13pbr11~-11b13------------------9-11~-------------11-11-9-11~----------------|
 D|-------------------------------------------------------------------------------|
 A|-------------------------------------------------------------------------------|
 E|-------------------------------------------------------------------------------|

let them ring
 
 e|-------------------------------------------------------------------------------|
 B|--10pbr9-9-7-9~---------13~------14~---16~-------------------------------------|
 G|-------------------------------------------------------------------------------|
 D|-------------------------------------------------------------------------------|
 A|-------------------------------------------------------------------------------|
 E|-------------------------------------------------------------------------------|


Important: The song above is NOT stored on the Chordie server. The original song is hosted at www.azchords.com. Chordie works as a search engine and provides on-the-fly formatting. Chordie does not index songs against artists'/composers' will. To remove this song please click here.

Text color:
Chord color:
Chord grids: 
Font size:    
Page size: 

A B C#m D E F#m G#7
Rate #1 of 2 versions

Login - add to songbook

SHARE PAGE  




You need to log in to post comments