Guitar Tabs, Chords and Lyrics
Server problems seems to be fixed. Chordie has been experiencing problems with songs disappearing. These issues now seems to be fixed, but still verifying the fix. If you find anything strange, please email admin@chordie.com.


Stone Cold Bush  Red Hot Chili Peppers

[Intro] 
 
 e|-------------------------------------|---------------------------------------------------------------|
 B|--------11---------11--------11------|--------------11---------11------------------------------------|
 G|-0-0-0--10--0-0-0--10--0-0-0-10------|-------0-0-0--10--0-0-0--10----3-5-3-5-3-----------------------|
 D|-------------------------------------|---------------------------------------------------------------|X3
 A|-------------------------------------|-----------------------------------------1-3-1-3-1-------------|
 E|-----------------------------1-2-3---|---------------------------------------------------------------|

[Verse] 
D U D U D D U
 
 e|----x---x---x---x---X--|-x--x------------------------------------|
 B|----11--11--x---11--13-|-11-11-----------------------------------|
 G|----10--10--x---10--12-|-10-10-------3--5--3--5--3---------------|
 D|----x---x---x---x---X--|-x--x------------------------------------|x2
 A|----x---x---x---x---X--|-x--x-----------------------1-3--1-3-1---|
 E|----x---x---x---x---X--|-x--x------------------------------------|

[Cborus] 
[C5] [Bb5] [A5] [C5] [Bb5] [A5]  
 
 e|------------------------------------|-----------------------------------|----------------------------------|
 B|------------------------------------|-----------------------------------|----------------------------------|
 G|------------------------------------|-----------------------------------|----------------------------------|
 D|-5-5-5-5-5---3-3-3-3-3---2-2-2-2-2--|-----------------------------------|---5-5-5-5-5--3-3-3-3-3--2-2-2-2-2|
 A|-3-3-3-3-3---1-1-1-1-1---0-0-0-0-0--|-----------------------------------|---3-3-3-3-3--1-1-1-1-1--0-0-0-0-0|
 E|------------------------------------|3--6p3----3-6p3---3--6p3---1-2-1-2-|----------------------------------|

[Intro] 2
 
 e|-------------------------------------|----------------------------------------------------------------|
 B|--------11---------11--------11------|--------------11---------11-------------------------------------|
 G|-0-0-0--10--0-0-0--10--0-0-0-10------|-------0-0-0--10--0-0-0--10----3-5-3-5-3------------------------|
 D|-------------------------------------|----------------------------------------------------------------|X3
 A|-------------------------------------|--------------------------------------------1-3-1-3-1-----------|
 E|-----------------------------1-2-3---|----------------------------------------------------------------|

[Cborus] 2
[C5] [Bb5] [A5] [C5] [Bb5] [A5]  
 
 e|-----------------------------------|-------------------------------------|--------------------------------|
 B|-----------------------------------|-------------------------------------|--------------------------------|
 G|-----------------------------------|-------------------------------------|--------------------------------|
 D|-5-5-5-5-5---3-3-3-3-3---2-2-2-2-2-|-------------------------------------|-5-5-5-5-5--3-3-3-3-3--2-2-2-2-2|
 A|-3-3-3-3-3---1-1-1-1-1---0-0-0-0-0-|-------------------------------------|-3-3-3-3-3--1-1-1-1-1--0-0-0-0-0|
 E|-----------------------------------|-3--6p3----3-6p3---3--6p3---1-2-1-2--|--------------------------------|

Flea's Solo
&
John's Solo
After John's Solo
[D5] [G] [F]  
 
 e|---------------------------------|------------------|
 B|---------------------------------|------------------|
 G|---------------------------------|--12--10----------|
 D|---------------------------------|--x---x-----------|
 A|--12-12-12-12-12-12-12-12-12-12--|--10--8-----------|
 E|--10-10-10-10-10-10-10-10-10-10--|------------------|

[Intro] 3
 
 e|---------------------------------------|------------------------------------------------------|
 B|-------11---------11--------11---------|-----------11---------11------------------------------|
 G|-0-0-0-10--0-0-0--10--0-0-0-10---------|----0-0-0--10--0-0-0--10----3-5-3-5-3-----------------|
 D|---------------------------------------|------------------------------------------------------|X3
 A|---------------------------------------|--------------------------------------1-3-1-3-1-------|
 E|-----------------------------1-2-3-----|------------------------------------------------------|

[Verse] 2
D U D U D D U
 
 e|----x---x---x---x---X--|-x--x------------------------------------|
 B|----11--11--x---11--13-|-11-11-----------------------------------|
 G|----10--10--x---10--12-|-10-10-------3--5--3--5--3---------------|
 D|----x---x---x---x---X--|-x--x------------------------------------|x2
 A|----x---x---x---x---X--|-x--x-----------------------1-3--1-3-1---|
 E|----x---x---x---x---X--|-x--x------------------------------------|

[Cborus] 3
[C5] [Bb5] [A5] [C5] [Bb5] [A5]  
 
 e|-----------------------------------|------------------------------------|--------------------------------|
 B|-----------------------------------|------------------------------------|--------------------------------|
 G|-----------------------------------|------------------------------------|--------------------------------|
 D|-5-5-5-5-5---3-3-3-3-3---2-2-2-2-2-|------------------------------------|-5-5-5-5-5--3-3-3-3-3--2-2-2-2-2|
 A|-3-3-3-3-3---1-1-1-1-1---0-0-0-0-0-|------------------------------------|-3-3-3-3-3--1-1-1-1-1--0-0-0-0-0|
 E|-----------------------------------|-3--6p3----3-6p3---3--6p3---1-2-1-2-|--------------------------------|

[Outro] 
 
 e|-------------------------------------|-------------------------------------|--------------------|
 B|--------------------------------11---|---------------------------------13--|---------------11---|
 G|-12p-10-10-10-----12p-10-10-10--10---|--12p-10-10-10-----12p-10-10-10--12--|--12p-10-10-10-10---|
 D|-------------------------------------|-------------------------------------|--------------------|
 A|-------------------------------------|-------------------------------------|--------------------|
 E|-------------------------------------|-------------------------------------|--------------------|

[Bb5] [A5] [G#5] [G5]  
 
 e|--------------------------------------------|
 B|-11----10---9---8---------------------------|
 G|-10----9----8---7---------------------------|
 D|--------------------------------------------|
 A|---------------------8----5----6----5-------|
 E|---------------------6----7----4----3-------| 


Important: The song above is NOT stored on the Chordie server. The original song is hosted at www.azchords.com. Chordie works as a search engine and provides on-the-fly formatting. Chordie does not index songs against artists'/composers' will. To remove this song please click here.

Text color:
Chord color:
Chord grids: 
Font size:    
Page size: 

A5 Bb5 C5 D5 F G G#5 G5
Rate #1 of 6 versions

Login - add to songbook

SHARE PAGE  



You need to log in to post comments