Guitar Tabs, Chords and Lyrics
Server problems seems to be fixed. Chordie has been experiencing problems with songs disappearing. These issues now seems to be fixed, but still verifying the fix. If you find anything strange, please email admin@chordie.com.


After Tonight  REO Speedwagon

[Am7] [Bm] [A] [D] [G] [Am7] [Bm] [D]  
 
 e|---------------------------------------------------------------------------|
 B|-----------------------------------0-1--0----------------------------------|
 G|------2--4-5-4---5-4-2--2-------------5-4--2-------------------------------|
 D|---5---------------------------5-------------------------------------------|
 A|---------------------------------------------------------------------------|
 E|---------------------------------------------------------------------------|

A Am7 G D4 g D
 
 e|---------------------------------------------------------------------------|
 B|---------------------------------------5--7-7/8----7/8-7-------------------|
 G|-------4--5-5/7--7p5--4----5-----------------------------------------------|
 D|-5-7---------------------------------7-------------------------------------|
 A|---------------------------------------------------------------------------|
 E|---------------------------------------------------------------------------|

S[D]taring up at the moonligh[G]t
Looking up at the st[Am7]ars
I'm alon[D]e and I just want to be with yo[G]u
But I do[Bm]n't know where you [E4]are
Ma[D]ybe I took you for gran[G]ted
So [Am]blind, I let your love slip[D] away
Now I'm [Bm]missing you so much I can't [Em]stand it
Please believe me when I s[Am]ay,[D4] [G] [D]
Af[Am]ter tonight[Em], I ne[D]ver will be the same agai[G7]n
This time I'm [C]sure that nothing means [Am]more
Than giving[Em] you all the love I ca[Am]n
After toni[Em]ght I p[Bm]romise, I'm gonna b[D]e a better m[G7]an
Just hold me [C]tight, and I'll be all [Am]right
After tonig[Am7]ht
Anti[D]cipating the momen[G]t
When I ca[Am]n make love with you aga[G7]in
Pat[C]ience is a virtue I'm findin[D]g
Very hard to unders[E4]tand
Af[Am]ter tonight[Em], I wi[D]ll never be the same agai[G7]n
This time I'm [C]sure that nothing means [Am]more
Than giving[Em] you all the love I ca[Am]n
After toni[Em]ght I p[Bm]romise, I'm gonna b[D]e a better m[G7]an
Just hold me [C]tight, and I'll be all [Am]right
After tonig[Am7]ht
Just hold me [C]tight, and I'll be all [Am]right
After tonig[Am7]ht

Important: The song above is NOT stored on the Chordie server. The original song is hosted at www.azchords.com. Chordie works as a search engine and provides on-the-fly formatting. Chordie does not index songs against artists'/composers' will. To remove this song please click here.

Text color:
Chord color:
Chord grids: 
Font size:    
Page size: 

A Am Am7 Bm C D D4 E4 Em G G7
Rate #1 of 1 versions

Jango Player

Login - add to songbook

SHARE PAGE  



You need to log in to post comments