Guitar Tabs, Chords and Lyrics
Major upgrade!! After one year development the new version of Chordie is now online! Please give feedback.


Red Red Wine  The Replacements

Tuning: Open A or Open G with a capo on the 2nd fret
Verse Riff
[B] [C#] [E/A] [B]  
 
 |--------------------------------------------------------------------------------|
 |-2-2-2-2-2-----------------------7---7---3-3-3-2--------------------------------|
 |-2-2-2-2-2--/4-4-----------------7---7---2-2-2-2--------------------------------|
 |-2-2-2-2-2--/4-4-6-4-7-6-4-------7---7---2-2-2-2--------------------------------|
 |-2-2-2-2-2--/4-4-4-4-4-4-4-----0---0---0-2-2-2-2--------------------------------|
 |--------------------------------------------------------------------------------|

B C# E/A B (Verse Riff)
Got to adore Chablis, that ain't no stuff for me
Chateau Timberley, as long as I can't see
Gallo or Muscatel, either one would be just swell
I didn't come here to fight, hey just as long as that ain't white
F# Low E B C#
Now I ain't no connoiseur cat - the conno-sewer rat
B A (riff 1)
Red red wine on Sunday
Riff 1
 
 |--------------------------------------------------------------------------------|
 |-0------------------------------------------------------------------------------|
 |-0-----5b-5b--2~----------------------------------------------------------------|
 |-0-----0--0---0-----------------------------------------------------------------|
 |-0------------------------------------------------------------------------------|
 |--------------------------------------------------------------------------------|

[B]Al[A]ways tastes so good
Low E
Red red wine (give me a little)
[F#]Red red wine
B (Riff 2)
Red red wine if you would
Riff 2
 
 |--------------------------------------------------------------------------------|
 |--------------------------------------------------------------------------------|
 |-2/7-7-7------2-----4-----------------------------------------------------------|
 |-2/7-7-7----2-----4-------------------------------------------------------------|
 |-2/7-7-7--2-----4---------------------------------------------------------------|
 |--------------------------------------------------------------------------------|

[B]He[C#]y n[E/A]ow a[B]s long as it is red, oh set 'em up until we're dead
A Saturday sippin' beer, it?s getting? drunk without a year
F# Low E B C#
Now I ain't no connoiseur cat, I think you guessed that
[B]Re[A]d red wine on Sunday
[B]Ju[A]st like Martin said
Low E
Red red wine
[F#]Red red wine
B (Riff 2)
Set us up 'til we're dead
(Riff 2)
Yeah, man
Solo
 
 |----7-7---7-7---7-7---7-7---7-7-------------------------------------------------|
 |----5-5---5-5---5-5---5-5---5-5-------------------------------------------------|
 |-7b-----7b----7b----7b----7b-------2-2-2-2-2-2-2-2------------------------------|
 |-----------------------------------2-2-2-2-2-2-2-2------------------------------|
 |-----------------------------------2-2-2-2-2-2-2-2------------------------------|
 |--------------------------------------------------------------------------------|
 |----7-7---7-7---7-7---7-7---7-7-------------------------------------------------|
 |----5-5---5-5---5-5---5-5---5-5-------------------------------------------------|
 |-7b-----7b----7b----7b----7b-------2-2-2-2-2-2-2-2------------------------------|
 |-----------------------------------2-2-2-2-2-2-2-2------------------------------|
 |-----------------------------------2-2-2-2-2-2-2-2------------------------------|
 |--------------------------------------------------------------------------------|
 |----7-7---7-7---7-7---7-7---7-7---7-7---7-7---7-7---7-7---7-7---7-7---7-7-------|
 |----5-5---5-5---5-5---5-5---5-5---5-5---5-5---5-5---5-5---5-5---5-5---5-5-------|
 |-7b-----7b----7b----7b----7b----7b---7b-----7b----7b----7b----7b----7b----------|
 |--------------------------------------------------------------------------------|
 |--------------------------------------------------------------------------------|
 |--------------------------------------------------------------------------------|
 |----7-7---7-7---7-7---7-7---7-7---7-7---7-7---7-7-------------------------------|
 |----5-5---5-5---5-5---5-5---5-5---5-5---5-5---5-5-------------------------------|
 |-7b-----7b----7b----7b----7b----7b---7b-----7b-----/7---\2--------7-------------|
 |---------------------------------------------------/7---\2------7---7-----------|
 |---------------------------------------------------/7---\2---/7-------7---------|
 |--------------------------------------------------------------------------------|

F# Low E B C#
I ain't no connoiseur cat, just about a sewer rat
B (Riff 3) (alternate between upstrokes and downstrokes rapidly to get the sound)
...on Sunday
Riff 3
 
 |--------------------------------------------------------------------------------|
 |--------------------------------------------------------------------------------|
 |--------------------------------------------------------------------------------|
 |--------------------------------------------------------------------------------|
 |-7-7-7-7-7-7-7-7-9-9-7-5--------------------------------------------------------|
 |-5-5-5-5-5-5-5-5-7-7-5-3--------------------------------------------------------|

[B]Ju[A]st like Martin said
Low E
Red red wine (give me a little)
[F#]Red red wine (give me a little)
B (Riff 2)
Set us up 'till we're dead

Important: The song above is NOT stored on the Chordie server. The original song is hosted at www.azchords.com. Chordie works as a search engine and provides on-the-fly formatting. Chordie does not index songs against artists'/composers' will. To remove this song please click here.

Text color:
Chord color:
Chord grids: 
Font size:    
Page size: 

A B C# F#
Rate #1 of 1 versions

Jango Player

Login - add to songbook

SHARE PAGE  



You need to log in to post comments