Guitar Tabs, Chords and Lyrics
Server problems seems to be fixed. Chordie has been experiencing problems with songs disappearing. These issues now seems to be fixed, but still verifying the fix. If you find anything strange, please email admin@chordie.com.


Seen Your Video   The Replacements

 
 e|-------|-----------|--------------|
 B|-------|-----------|--------------|
 G|-16-16\|13\11------|--------------|
 D|-------|-------9-9-|9-9-----------|
 A|-14-14\|11\9---9-9-|9-9-----------|
 E|-------|-------7-7-|7-7-----------|

 


 


 Guitar 1


 

 
 e|-----------------|----------------|
 B|---------7-7-7-5-|5-5-5-4-4-4-5-4-|
 G|-6-6-6-8---------|----------------|
 D|-----------------|----------------|
 A|-----------------|----------------|
 E|-----------------|----------------|

 


 |Guitar 2


 

 
 e|-----------------|----------------|
 B|-----------------|----------------|
 G|-----11-------11-|-----11------11-|
 D|-----11-------11-|-----11------11-|
 A|-----9--------9--|-----9-------9--|
 E|-----------------|----------------|
 e|-----------------|----------------|
 B|-----------------|----------------|
 G|-5-5-5-4-4-------|----------------|
 D|-4-4-4-4-4-------|----------------|
 A|-----------------|----------------|
 E|-----------------|----------------|

 


 |


 

 
 e|-----------------|----------------|
 B|-----------------|----------------|
 G|-----------------|----------------|
 D|-9-------9-------|9-9-9-9-9-9-9-9-|
 A|-9-------9-------|9-9-9-9-9-9-9-9-|
 E|-7-------7-------|7-7-7-7-7-7-7-7-|
 e|-----------------|----------------|
 B|---------7-7-7-5-|5-5-5-4-4-4-5-4-|
 G|-6-6-6-8---------|----------------|
 D|-----------------|----------------|
 A|-----------------|----------------|
 E|-----------------|----------------|

 


 |


 

 
 e|-----------------|----------------|
 B|-----------------|----------------|
 G|-----11-------11-|-----11------11-|
 D|-----11-------11-|-----11------11-|
 A|-----9--------9--|-----9-------9--|
 E|-----------------|----------------|
 e|----------------0|----------------|
 B|----------------0|----------------|
 G|-5-5-5-4-4-------|----------------|
 D|-4-4-4-4-4-------|----------------|
 A|-----------------|----------------|
 E|-----------------|----------------|

 


 |


 

 
 e|-----------------|0---------------|
 B|-----------------|0---------------|
 G|-----------------|1---------------|
 D|-9-------9-------|2---------------|
 A|-9-------9-------|2---------------|
 E|-7-------7-------|0---------------|

 


 


 Gtr. 2


 (gtr 1 out)


 


 

 
 e|-----------------|------------------|
 B|-----------------|------------------|
 G|--------------11-|--------8-8-6-6-9-|
 D|-9------------11-|--------8-8-6-6-9-|
 A|-9------------9--|--------6-6-4-4-7-|
 E|-7---------------|------------------|
 e|-----------------|------------------|
 B|-----------------|------------------|
 G|-9---------------|------------------|
 D|-9---------------|9-----------------|
 A|-7---------------|9-----------------|
 E|-----------------|7-----------------|

 


 


 Guitar 1


 

 
 e||------------------|----------------|
 B||----------7-7-7-5-|5-5-5-4-4-4-5-4-|
 G||*-6-6-6-8---------|----------------|
 D||*-----------------|----------------|
 A||------------------|----------------|
 E||------------------|----------------|

 


 || Guitar 2


 

 
 e||------------------|----------------|
 B||------------------|----------------|
 G||*-----11-------11-|-----11------11-|
 D||*-----11-------11-|-----11------11-|
 A||------9--------9--|-----9-------9--|
 E||------------------|----------------|
 e|-----------------|----------------|
 B|-----------------|----------------|
 G|-5-5-5-4-4-------|----------------|
 D|-4-4-4-4-4-------|----------------|
 A|-----------------|----------------|
 E|-----------------|----------------|

 


 |


 

 
 e|-----------------|----------------|
 B|-----------------|----------------|
 G|-----------------|----------------|
 D|-9-------9-------|9-9-9-9-9-9-9-9-|
 A|-9-------9-------|9-9-9-9-9-9-9-9-|
 E|-7-------7-------|7-7-7-7-7-7-7-7-|
 e|-----------------|----------------|
 B|---------7-7-7-5-|5-5-5-4-4-4-5-4-|
 G|-6-6-6-8---------|----------------|
 D|-----------------|----------------|
 A|-----------------|----------------|
 E|-----------------|----------------|

 


 |


 

 
 e|-----------------|----------------|
 B|-----------------|----------------|
 G|-----11-------11-|-----11------11-|
 D|-----11-------11-|-----11------11-|
 A|-----9--------9--|-----9-------9--|
 E|-----------------|----------------|
 e|----------------0|----------------|
 B|----------------0|----------------|
 G|-5-5-5-4-4-------|----------------|
 D|-4-4-4-4-4-------|----------------|
 A|-----------------|----------------|
 E|-----------------|----------------|

 


 |


 

 
 e|-----------------|0---------------|
 B|-----------------|0---------------|
 G|-----------------|1---------------|
 D|-9-------9-------|2---------------|
 A|-9-------9-------|2---------------|
 E|-7-------7-------|0---------------|

 


 


 Guitar 2


 (Guitar 1 out)


 

 
 e|-----------------|------------------|
 B|-----------------|------------------|
 G|--------------11-|--------8-8-6-6-9-|
 D|-9------------11-|--------8-8-6-6-9-|
 A|-9------------9--|--------6-6-4-4-7-|
 E|-7---------------|------------------|
 e|-----------------|------------------|
 B|-----------------|------------------|
 G|-9---------------|--------8-8-6-6-9-|
 D|-9---------------|9-------8-8-6-6-9-|
 A|-7---------------|9-------6-6-4-4-7-|
 E|-----------------|7-----------------|
 e|-----------------|------------------|
 B|-----------------|------------------|
 G|-9---------------|--------8-8-6-6-9-|
 D|-9---------------|9-------8-8-6-6-9-|
 A|-7---------------|9-------6-6-4-4-7-|
 E|-----------------|7-----------------|
 e|-----------------|------------------|
 B|-----------------|------------------|
 G|-9---------------|---------13-13\11\|
 D|-9---------------|9--------13-13\11\|
 A|-7---------------|9--------11-11\9\-|
 E|-----------------|7-----------------|
 e|-0---------------|------------------|
 B|-0---------------|------------------|
 G|-6---------------|---------13-13\11\|
 D|-7---------------|---------13-13\11\|
 A|-7---------------|---------11-11\9\-|
 E|-5---------------|------------------|
 e|-0---------------|------------------|
 B|-0---------------|------------------|
 G|-0---------------|------------------|
 D|-6---------------|4-------2---------|
 A|-6---------------|4-------2---------|
 E|-4---------------|2-------0---------|

 


 


 Guitar 1


 

 
 e|-----------------|-----------------||
 B|-----------------|-----------------||
 G|-----------------|-------7b-------*||
 D|----------------7|7-9-9-----------*||
 A|-----------------|-----------------||
 E|-----------------|-----------------||

 


 | Guitar 2


 

 
 e|-----------------|-----------------||
 B|-----------------|-----------------||
 G|-----------------|----------------*||
 D|-9-9-9-9-9-9-9-9-|9-9-9-9-9-9-9-9-*||
 A|-9-9-9-9-9-9-9-9-|9-9-9-9-9-9-9-9--||
 E|-7-7-7-7-7-7-7-7-|7-7-7-7-7-7-7-7--||

 


 


 


 X3


 


 

 
 e||------------------|------------------|
 B||------------------|------------------|
 G||*-16-16-16-18-16--|16---13---11â??-9---|
 D||*-----------------|------------------|
 A||--14-14-14-16-14--|14---11---9---7---|
 E||------------------|------------------|

 


 ||


 

 
 e||--0---------------|0-----------------|
 B||--0---------------|0-----------------|
 G||*-6---------------|6-----------------|
 D||*-6---------------|6-----------------|
 A||--4---------------|4-----------------|
 E||------------------|------------------|
 e|-----------------|------------------|
 B|-----------------|------------------|
 G|-16-16-16-18-16--|16---13---11â??-9---|
 D|-----------------|------------------|
 A|-14-14-14-16-14--|14---11---9---7---|
 E|-----------------|------------------|

 


 |


 

 
 e|-0---------------|0-----------------|
 B|-0---------------|0-----------------|
 G|-6---------------|6-----------------|
 D|-7---------------|7-----------------|
 A|-7---------------|7-----------------|
 E|-5---------------|5-----------------|
 e|-----------------|-------------------||
 B|-----------------|-------------------||
 G|-16-16-16-18-16--|16---13---11â??-9---*||
 D|-----------------|------------------*||
 A|-14-14-14-16-14--|14---11---9---7----||
 E|-----------------|-------------------||

 


 |


 

 
 e|-0---------------|0------------------||
 B|-0---------------|0------------------||
 G|-1---------------|1-----------------*||
 D|-2---------------|2-----------------*||
 A|-2---------------|2------------------||
 E|-0---------------|0------------------||
 e|-----------------|------------------|
 B|-----------------|------------------|
 G|-16-16-16-18-16--|16---13-13\11\9---|
 D|-----------------|------------------|
 A|-14-14-14-16-14--|14---11-11\9\-7---|
 E|-----------------|------------------|

 


 |


 

 
 e|-0---------------|0-----------------|
 B|-0---------------|0-----------------|
 G|-6---------------|6-----------------|
 D|-6---------------|6-----------------|
 A|-4---------------|4-----------------|
 E|-----------------|------------------|
 e|-----------------|------------------|
 B|-----------------|------------------|
 G|-----------------|------------------|
 D|-----------------|------------------|
 A|-----------------|------------------|
 E|-----------------|------------------|

 


 |


 

 
 e|-0---------------|------------------|
 B|-0---------------|------------------|
 G|-6---------------|------------------|
 D|-7---------------|6---------4-------|
 A|-7---------------|6---------4-------|
 E|-5---------------|4---------2-------|
 e|-----------------|-------------------|
 B|-----------------|-------------------|
 G|-----------------|-------------------|
 D|-----------------|-------------------|
 A|-----------------|-------------------|
 E|-----------------|---------------3b--|

 


 |


 

 
 e|-0---------------|-------------------|
 B|-0---------------|-------------------|
 G|-1---------------|-------------------|
 D|-2---------------|-------------------|
 A|-2---------------|-------------------|
 E|-0---------------|-------------------|

 


 


 


 Guitar 1


 (Guitar 2 out)


 (Chords implied by bass)


 


 [(B)]  

 
 e|-----------------|------------------|
 B|-----------------|------------------|
 G|-----------------|------------------|
 D|-----------------|------------------|
 A|-----------------|------------------|
 E|-----------------|------------------|

 


 


 (Crazy fill w/ l[(E)]ots of bends, etc.)


 

 
 e|-----------------|------------------|
 B|-----------------|------------------|
 G|-----------------|------------------|
 D|-----------------|------------------|
 A|-----------------|------------------|
 E|-----------------|------------------|

 


 


 [(B)]  

 
 e|-----------------|------------------|
 B|-----------------|------------------|
 G|-----------------|------------------|
 D|-----------------|------------------|
 A|-----------------|------------------|
 E|-----------------|------------------|

 


 


 [(E)](Same deal)


 

 
 e|-----------------|------------------|
 B|-----------------|------------------|
 G|-----------------|------------------|
 D|-----------------|------------------|
 A|-----------------|------------------|
 E|-----------------|------------------|

 


 


 [(B)]â??All day, all night, all music videoâ??


 

 
 e|-----------------|------------------|
 B|-----------------|------------------|
 G|-----------------|------------------|
 D|-----------------|------------------|
 A|-----------------|------------------|
 E|-----------------|------------------|

 


 


 


 â??Seen your video!â?? etc.


 x3


 Guitar 1


 

 
 e||------------------|------------------|
 B||------------------|------------------|
 G||*-16-16-16-18-16--|16---13---11â??-9---|
 D||*-----------------|------------------|
 A||--14-14-14-16-14--|14---11---9---7---|
 E||------------------|------------------|

 


 ||Guitar 2


 

 
 e||--0---------------|0-----------------|
 B||--0---------------|0-----------------|
 G||*-6---------------|6-----------------|
 D||*-6---------------|6-----------------|
 A||--4---------------|4-----------------|
 E||------------------|------------------|
 e|-----------------|------------------|
 B|-----------------|------------------|
 G|-16-16-16-18-16--|16---13---11â??-9---|
 D|-----------------|------------------|
 A|-14-14-14-16-14--|14---11---9---7---|
 E|-----------------|------------------|

 


 |


 

 
 e|-0---------------|0-----------------|
 B|-0---------------|0-----------------|
 G|-6---------------|6-----------------|
 D|-7---------------|7-----------------|
 A|-7---------------|7-----------------|
 E|-5---------------|5-----------------|
 e|-----------------|-------------------||
 B|-----------------|-------------------||
 G|-16-16-16-18-16--|16---13---11â??-9---*||
 D|-----------------|------------------*||
 A|-14-14-14-16-14--|14---11---9---7----||
 E|-----------------|-------------------||

 


 |


 

 
 e|-0---------------|0------------------||
 B|-0---------------|0------------------||
 G|-1---------------|1-----------------*||
 D|-2---------------|2-----------------*||
 A|-2---------------|2------------------||
 E|-0---------------|0------------------||
 E|-----------------|------------------|
 B|-----------------|------------------|
 G|-16-16-16-18-16--|16---13---11â??-9---|
 D|-----------------|------------------|
 A|-14-14-14-16-14--|14---11---9---7---|
 E|-----------------|------------------|

 


 |


 

 
 e|-0---------------|0-----------------|
 B|-0---------------|0-----------------|
 G|-6---------------|6-----------------|
 D|-6---------------|6-----------------|
 A|-4---------------|4-----------------|
 E|-----------------|------------------|
 e|-----------------|------------------|
 B|-----------------|------------------|
 G|-16-16-16-18-16--|16---13---13-11-13|
 D|-----------------|------------------|
 A|-14-14-14-16-14--|14---11---11-9--11|
 E|-----------------|------------------|

 


 |


 

 
 e|-0---------------|0-----------------|
 B|-0---------------|0-----------------|
 G|-6---------------|6-----------------|
 D|-7---------------|7-----------------|
 A|-7---------------|7-----------------|
 E|-5---------------|5-----------------|

 


 


 Both Guitars


 


 

 
 e|----------------||
 B|----------------||
 G|----------------||
 D|-9â??-9â??-9â??-9-----||
 A|-9â??-9â??-9â??-9-----||
 E|-7-â??7â??-7â??-7-----||


Important: The song above is NOT stored on the Chordie server. The original song is hosted at www.azchords.com. Chordie works as a search engine and provides on-the-fly formatting. Chordie does not index songs against artists'/composers' will. To remove this song please click here.

This song is displayed as text-only. Transposing and tuning is only available for chordpro-songs.
Rate #2 of 2 versions

Login - add to songbook

SHARE PAGE  



You need to log in to post comments