Guitar Tabs, Chords and Lyrics
Server problems seems to be fixed. Chordie has been experiencing problems with songs disappearing. These issues now seems to be fixed, but still verifying the fix. If you find anything strange, please email admin@chordie.com.


Keine Liebeslieder  Revolverheld

[Intro] 
 
 e|------------------------------------------------------------|
 B|----------------------5-------------------------------------|
 G|--------1--2--2--4--4----4--4/6--4--2-------1--1------------|
 D|----2h4-------------------------------2h4--------4--2-------|
 A|------------------------------------------------------------|
 E|--0---------------------------------------------------------| 4x

[E] [G#] [A] [B] 
 
 e|------------------------------------------------------------|
 B|----------------------5-------------------------------------|
 G|--------1--2--2--4--4----4--4/6--4--2-------1--1------------|
 D|----2h4-------------------------------2h4--------4--2-------|
 A|----------------------------(0)------------(2)--------------|
 E|--0-------------(4)-----------------------------------------| 4x

[Verse] 
Du trocknest mein [E]Her[G#]z, legst meine [A]Welt in Schutt und [B]Asche
triffst jeden [E]Ner[G#]v, und du [A]kannst dabei noch l[B]achen
frag mich wa[E]rum[G#], [A]kannst du mich nicht [B]hassen?
Du bist perf[E]ekt[G#], aber [A]kannst mich nicht [B]verlassen
Was sollen wir [E]red[G#]en, wenn wir [A]eigentlich gar nichts [B]sagen?
Du kannst so nicht [E]leb[G#]en, und das [A]alles nicht er[B]tragen
Siehst du [E]nic[G#]ht, dass wir [A]beide ubert[B]reiben?
Nur noch [E]Pfl[G#]icht, und ich [A]breche unser [B]Schweigen
[E]  
[Cborus] 
Ich schmeis dich [E]raus, hab deine Platten ver[C#]kauft, ich will keine [A]Liebeslieder [B]mehr
Ich schmeis dich [E]raus, hab deine Platten ver[C#]kauft, ich will keine [A]Liebeslieder [B]mehr
[Post-Cborus] 
E | C# | A | B | 2x
[Verse] 
Du bist der Tausend[E]sas[G#]sa, alles [A]fliegt dir einfach [B]zu
Doch der Allesh[E]ass[G#]er, lasst dich [A]innen nicht in [B]Ruh,
Es ist [E]Zei[G#]t, sich [A]endlich zu [B]entscheiden
zwischen "[E]Lie[G#]be" und "Ich [A]kann dich doch nicht [B]leiden"
[E]  
[Cborus] 
Ich schmeis dich [E]raus, hab deine Platten ver[C#]kauft, ich will keine [A]Liebeslieder [B]mehr
Ich schmeis dich [E]raus, hab deine Platten ver[C#]kauft, ich will keine [A]Liebeslieder [B]mehr
[Bridge] 
[C#]Du wirst mich nie mehr [A]einsperr'n, mich nie [E]mehr manipul[B]ier'n
[C#]Und ich werde nach [A]vorn' schau'n und den [E]Ruckweg verbarrika[B]dier'n [C]
[Post-Cborus] 
E | C# | A | B | 2x
[Cborus] 
Ich schmeis dich [E]raus, hab deine Platten ver[C#]kauft, ich will keine [A]Liebeslieder [B]mehr
Ich schmeis dich [E]raus, hab deine Platten ver[C#]kauft, ich will keine [A]Liebeslieder [B]mehr
[Outro] 
[E] [C#]  
 
 e|------------------------------------------------------------|
 B|----------------------5-------------------------------------|
 G|--------1--2--2--4--4----4--4/6--4--2-------1--1------------|
 D|----2h4-------------------------------2h4--------4--2-------|
 A|------------------------------------------------------------|
 E|--0---------------------------------------------------------| 

[A] [B]  
 
 e|------------------------------------------------------------|
 B|----------------------5-------------------------------------|
 G|--------1--2--2--4--4----4--4/6--4--2-------1--1------------|
 D|----2h4-------------------------------2h4--------4--2-------|
 A|------------------------------------------------------------|
 E|--0---------------------------------------------------------| 

2x
[E] 

Important: The song above is NOT stored on the Chordie server. The original song is hosted at www.azchords.com. Chordie works as a search engine and provides on-the-fly formatting. Chordie does not index songs against artists'/composers' will. To remove this song please click here.

Text color:
Chord color:
Chord grids: 
Font size:    
Page size: 

A B C C# E G#
Rate #1 of 4 versions

Login - add to songbook

SHARE PAGE  



You need to log in to post comments