Guitar Tabs, Chords and Lyrics
Login is temporarily disabled for some users. Do not panic. Will be back in an hour or two. DO NOT REREGISTER!!


Hello Mary Lou  Ricky Nelson

The 'A' is played in the 5th position.
[A]Hello Mary Lou, good[D]bye heart,
[A]Sweet Mary Lou I??m so in love with you,[E7]
[A]I knew Mary Lou, w[C#7]e??d never pa[F#m]rt,
So hello[A] Mary Lou, [E7]goodbye heart,[A]
[A]Passed me by one sunny day,
[D]Flashed those big brown eyes my way,
[A]And ooh I wanted you forever more,[E7]
[A]Now I??m not one who gets around,
[D]Swear my feet stuck to the ground,
[A]And though I never did see you before,[E7]
I said Hello Mary Lou, goodbye heart,
Sweet Mary Lou I??m so in love with you,
I knew Mary Lou, we??d never part,
So hello Mary Lou, goodbye heart,
Solo:
[A] [A7]  
 
 E-------------|-----5---------5---(5)-|--3--2-(2)--0-(0)--------|
 B-------------|--------2-(2)----------|------------------2-(2)--|
 G-------------|-----------------------|-------------------------|
 D-------------|-----2--------------2--|--------2------------2---|
 A-------------|--0--------0-----------|--0------------0---------|
 E--0---2---4--|-----------------------|-------------------------|

[D7]  
 
 E------2--------------2--|--(2)---0----------------2--|
 B---------1-0------------|-----------1p-0-------------|
 G--------------2-(2)-----|-----------------2--(2)-----|
 D--0---0-----------------|---0----0--0--------(0)-----|
 A-----------------0------|----------------------------|
 E------------------------|----------------------------|

[A]  
 
 E--(2)---0---------------|------5----------5---(5)---|
 B------------1p-0--------|---------2--(2)------------|
 G------------------2--2--|---------------------------|
 D---0----0---0--------0--|------2---------------2----|
 A------------------------|--0----------0-------------|
 E------------------------|---------------------------|

[A7] [E7]  
 
 E---5--------3---(3)---2--(2)---|----0----0----------|
 B-----2-(2)---------------------|------------3---(3)-|
 G------------------------------0h1-------------------|
 D--------2-----------------2----|----2------------2--|
 A---0-------------0-------------|--------------------|
 E-------------------------------|0--------0----------|
 E---0--(0)--------0--(0)---|------------------------------|
 B----------3--(3)----------|---5--(5)--7-(0)--7--(7)---5--|
 G--------------------------|------------------------------|
 D-------2-------------2----|-------7--------------7-------|
 A--------------------------|------------------------------|
 E---0----------0----------2/5-------------5---------------|

[C#7]  
 
 E----------------------------|----------------------------|
 B---(5)--7----------5--(5)---|--------2---3.-3.-3.--------|
 G--------------5h6-----------|---4b6------------------2---|
 D-----------7----------------|----------------------------|
 A----------------------------|----------------------------|
 E----5-----------5------5----|-----4----------------------|

[F#m] [A/E]  
 
 E------------------------|----------5---------------------|
 B------------------------|--------------------------------|
 G---------------2--(2)---|--7b(9)--------(9)-7-5-----7----|
 D--4----2h4--------------|--------------------------------|
 A------------------------|--------------------------------|
 E----2----2---------2----|-----0-------------3-----0------|

I saw you lips, I heard your voice
Believe me I just had no choice
While horses couldn't make me stay away
Thaought about a moonlit night,
Arms around you good and tight,
That's all I had to see for me to say
So, hello Mary Lou, goodbye heart,
Sweet Mary Lou I'm so in love with you
I knew Mary Lou, we'd never part,
So hello Mary Lou, goodbye heart,
So hello Mary Lou goodbye heart,
yes hello Mary Lou goodbye heart

Important: The song above is NOT stored on the Chordie server. The original song is hosted at www.azchords.com. Chordie works as a search engine and provides on-the-fly formatting. Chordie does not index songs against artists'/composers' will. To remove this song please click here.

Text color:
Chord color:
Chord grids: 
Font size:    
Page size: 

A A/E A7 C#7 D D7 E7 F#m
Rate #1 of 10 versions

Login - add to songbook

SHARE PAGE  




You need to log in to post comments