Guitar Tabs, Chords and Lyrics
Major upgrade!! After one year development the new version of Chordie is now online! Please give feedback.


Love on the Brain  Rihanna

(Verse/Chorus)
[G] [Am] 
 
 E|-----------3-----------------3-------------------5-----------------5--------|
 B|--------3-----3-----------3-----4-------------5-----5-----------5-----5-----|
 G|-----4-----------4-----4-----------4-------5-----------5-----5-----------5--|
 D|----------------------------------------------------------------------------|
 A|----------------------------------------------------------------------------|
 E|--3-----------------3-------------------5-----------------5-----------------|

[Em] [D]  
 
 E|-----------7-----------------7-------------------5-----------------5--------|
 B|--------8-----8-----------8-----8-------------7-----7-----------7-----7-----|
 G|-----9-----------9-----9-----------9-------7-----------7-----7-----------7--|
 D|----------------------------------------------------------------------------|
 A|--7-----------------7-------------------5-----------------5-----------------|
 E|----------------------------------------------------------------------------|

(Bridge)
[F] [C] [G]  
 
 E|-----------------------------------------------------|
 B|-----------------------------------------------------|
 G|---------------5--5--5--5----------------------------|
 D|--3--3--3--3---5--5--5--5---5--5--5--5---5--5--5--5--|
 A|--3--3--3--3---3--3--3--3---5--5--5--5---5--5--5--5--|
 E|--1--1--1--1----------------3--3--3--3---3--3--3--3--|

[F] [C] [D]  
 
 E|-----------------------------------------------------|
 B|-----------------------------------------------------|
 G|---------------5--5--5--5---7--7--7--7---7--7--7--7--|
 D|--3--3--3--3---5--5--5--5---7--7--7--7---7--7--7--7--|
 A|--3--3--3--3---3--3--3--3---5--5--5--5---5--5--5--5--|
 E|--1--1--1--1-----------------------------------------|


Important: The song above is NOT stored on the Chordie server. The original song is hosted at www.azchords.com. Chordie works as a search engine and provides on-the-fly formatting. Chordie does not index songs against artists'/composers' will. To remove this song please click here.

Text color:
Chord color:
Chord grids: 
Font size:    
Page size: 

Am C D Em F G
Rate #1 of 2 versions

Login - add to songbook

SHARE PAGE  



You need to log in to post comments