Guitar Tabs, Chords and Lyrics
Major upgrade!! After one year development the new version of Chordie is now online! Please give feedback.


Never Ending  Rihanna

[Intro] 
[F#m7] [D] [A] [C#7] 
 
 e||-----------------------------------|----------------------------------||
 B||-------------------------3-L-3---3-|-------2-L-2---2-------2-L-2---2--||
 G||*---------2-L-2---2----2-------2---|-----2-------2-------4-------4---*||
 D||*-------2-------2---0------0-------|---------------------------------*||
 A||-----------------------------------|--0------0-------4-------4--------||
 E||---2--------2----------------------|----------------------------------||

[Verse 1] 
[F#m7] [D] [A] [C#m7] 
 
 e|-----------------------------------|----------------------------------|
 B|-------------------------3-L-3---3-|-------2-L-2---2------------------|
 G|*---------2-L-2---2----2-------2---|-----2-------2----------1-L-1---1-|
 D|*-------2-------2---0------0-------|----------------------2-------2---|
 A|-----------------------------------|--0------0-------4--------4-------|
 E|---2--------2----------------------|----------------------------------|

[F#m7] [D] [A] [C#m7] 
 
 e|----------------------------------|-----------------0----2----------||
 B|------------------------3-L-3---3-|-------2-L-2---2---------2p--0---||
 G|---------2-L-2---2----2-------2---|-----2-------2------------------*||
 D|-------2-------2---0------0-------|--------------------------------*||
 A|----------------------------------|--0------0-------4---------------||
 E|--2--------2----------------------|---------------------------------||

[Interlude] 
[F#m7] [D] [A] [C#7] 
 
 e||-----------------------------------|----------------------------------||
 B||-------------------------3-L-3---3-|-------2-L-2---2-------2-L-2---2--||
 G||*---------2-L-2---2----2-------2---|-----2-------2-------4-------4---*||
 D||*-------2-------2---0------0-------|---------------------------------*||
 A||-----------------------------------|--0------0-------4-------4--------||
 E||---2--------2----------------------|----------------------------------||

[Verse 2] 
[F#m7] [D] [A] [C#m7] 
 
 e|-----------------------------------|----------------------------------|
 B|-------------------------3-L-3---3-|-------2-L-2---2------------------|
 G|*---------2-L-2---2----2-------2---|-----2-------2----------1-L-1---1-|
 D|*-------2-------2---0------0-------|----------------------2-------2---|
 A|-----------------------------------|--0------0-------4--------4-------|
 E|---2--------2----------------------|----------------------------------|

________________________________
|1.
[F#m7] [D] [A] [C#m7] 
 
 e|----------------------------------|-----------------0----2----------||
 B|------------------------3-L-3---3-|-------2-L-2---2---------2p--0---||
 G|---------2-L-2---2----2-------2---|-----2-------2------------------*||
 D|-------2-------2---0------0-------|--------------------------------*||
 A|----------------------------------|--0------0-------4---------------||
 E|--2--------2----------------------|---------------------------------||

____________________________________________________
|2.
[A] [C#7] [C#7] 
 
 e|---------------------------------|--------------------|
 B|-------2-L-2---2-------2-L-----2-|--L-------2-L-------|
 G|-----2-------2-------4-----4-----|------4-------4---4-|
 D|-----------------------------3---|--------3-------3---|
 A|--0------0-------4-------4-------|--4---------4-------|
 E|---------------------------------|--------------------|

[Cborus] 
[Bm] [A] [D] [F#m7] [C#7] 4x
 
 e|------------------------------|------------------------------------||
 B|---3--------3-----2-----3-----|--2----------2-----------2-L--------||
 G|*-------4-L---4------2-----2--|---------2-L---2---4---------4---4-*||
 D|*-----4---------4-------0-----|-------2---------2-----3-------3---*||
 A|---2------2-------0-----------|-------------------4-------4--------||
 E|------------------------------|--2--------2------------------------||

[C#7] [C#7] [C#7] 
 
 e|----------------------------------|--------------------|
 B|--------2-L-------------2-L-------|--2---2-2-2-2-2-2-2-|
 G|--4---------4---4-4---------4---4-|--4---4-4-4-4-4-4-4-|
 D|------3-------3-------3-------3---|--3---3-3-3-3-3-3-3-|
 A|--4-------4-------4-------4-------|--4---4-4-4-4-4-4-4-|
 E|----------------------------------|--------------------|

[Interlude] 
[F#m7] [D] [A] [C#7] 
 
 e||-----------------------------------|----------------------------------||
 B||-------------------------3-L-3---3-|-------2-L-2---2-------2-L-2---2--||
 G||*---------2-L-2---2----2-------2---|-----2-------2-------4-------4---*||
 D||*-------2-------2---0------0-------|---------------------------------*||
 A||-----------------------------------|--0------0-------4-------4--------||
 E||---2--------2----------------------|----------------------------------||

[Verse 3] 
[F#m7] [D] [A] [C#m7] 
 
 e|-----------------------------------|----------------------------------|
 B|-------------------------3-L-3---3-|-------2-L-2---2------------------|
 G|*---------2-L-2---2----2-------2---|-----2-------2----------1-L-1---1-|
 D|*-------2-------2---0------0-------|----------------------2-------2---|
 A|-----------------------------------|--0------0-------4--------4-------|
 E|---2--------2----------------------|----------------------------------|

[F#m7] [D] [A] [C#m7] 
 
 e|----------------------------------|-----------------0----2----------||
 B|------------------------3-L-3---3-|-------2-L-2---2---------2p--0---||
 G|---------2-L-2---2----2-------2---|-----2-------2------------------*||
 D|-------2-------2---0------0-------|--------------------------------*||
 A|----------------------------------|--0------0-------4---------------||
 E|--2--------2----------------------|---------------------------------||

[Interlude] 
[F#m7] [D] [A] [C#7] 
 
 e|-----------------------------------|---------------------------------|
 B|-------------------------3-L-3---3-|-------2-L-2---2-------2-L-2---2-|
 G|*---------2-L-2---2----2-------2---|-----2-------2-------4-------4---|
 D|*-------2-------2---0------0-------|---------------------------------|
 A|-----------------------------------|--0------0-------4-------4-------|
 E|---2--------2----------------------|---------------------------------|

________________________________
|1.
[F#m7] [D] [A] [C#m7] 
 
 e|----------------------------------|-----------------------------------||
 B|------------------------3-L-3---3-|-------2-L-2---2-------------------||
 G|---------2-L-2---2----2-------2---|-----2-------2----------1-L-1---1-*||
 D|-------2-------2---0------0-------|----------------------2-------2---*||
 A|----------------------------------|--0------0-------4--------4--------||
 E|--2--------2----------------------|-----------------------------------||

____________________________________________________
|2.
[A] [C#7] [C#7] 
 
 e|---------------------------------|--------------------|
 B|-------2-L-2---2-------2-L-----2-|--L-------2-L-------|
 G|-----2-------2-------4-----4-----|------4-------4---4-|
 D|-----------------------------3---|--------3-------3---|
 A|--0------0-------4-------4-------|--4---------4-------|
 E|---------------------------------|--------------------|

[Cborus] 
[Bm] [A] [D] [F#m7] [C#7] 4x
 
 e|------------------------------|------------------------------------||
 B|---3--------3-----2-----3-----|--2----------2-----------2-L--------||
 G|*-------4-L---4------2-----2--|---------2-L---2---4---------4---4-*||
 D|*-----4---------4-------0-----|-------2---------2-----3-------3---*||
 A|---2------2-------0-----------|-------------------4-------4--------||
 E|------------------------------|--2--------2------------------------||

[Outro] 
[C#7] [C#7] [C#7sus4add9-] [C#7] 
 
 e|----------------------------------|-------------------------------------------|
 B|--------2-L-------------2-L-------|-----------------3-L-------------2-L-------|
 G|--4---------4---4-4---------4---4-|--4------------------4---4-4---------4---4-|
 D|------3-------3-------3-------3---|---------------4-------4-------3-------3---|
 A|--4-------4-------4-------4-------|--4----------------4-------4-------4-------|
 E|----------------------------------|-------------------------------------------|

Rit....................................
[C#7/G#] [C#7/G#]  
 
 e|-------------------------------|------------||
 B|--------2-L----------------2-L-|------------||
 G|--4---------4---4-4------------|------------||
 D|------3-------3----------3-----|------------||
 A|----------4------------------4-|----/4------||
 E|--4---------------4------------|------------|| 


Important: The song above is NOT stored on the Chordie server. The original song is hosted at www.azchords.com. Chordie works as a search engine and provides on-the-fly formatting. Chordie does not index songs against artists'/composers' will. To remove this song please click here.

Text color:
Chord color:
Chord grids: 
Font size:    
Page size: 

A Bm C#7 C#7/G# C#m7 D F#m7
Rate #1 of 2 versions

Jango Player

Login - add to songbook

SHARE PAGE  




You need to log in to post comments