Guitar Tabs, Chords and Lyrics
Server problems seems to be fixed. Chordie has been experiencing problems with songs disappearing. These issues now seems to be fixed, but still verifying the fix. If you find anything strange, please email admin@chordie.com.


All the Way  Rival Sons

Tuning: EADGBe
Bass varies this throughout verse
 
 G|------------------------|
 D|------------------------|
 A|------------------------|
 E|9--9-9--9--9--9-9--6-7-8|

[C#]When I was young
Sometimes I'd be a bad boy
My pop would sit me down
He'd put his belt back on tight
He'd say apologize to your sister
Treat the women right
And I'd say mm-hmm
And he'd give me that look
And I'd say yes sir
Well that happened many more times
Due to various reasons
They said I was a colourful boy
I didn't play ball
So I couldn't get the chicks
'Til I picked up a guitar
And learned a couple licks
And I went...
Rake
 
 E|-------------|------------------|------------------|----------|----|
 B|12b14--12~~~~|------------------|9-----------------|----------|----|
 G|-------------|------------11-9~~|-9--------------9b|11-9------|----|
 D|-------------|---9-10-11--------|--9h11--9h11-11---|-----11~~~|----|
 A|-------------|11----------------|------------------|----------|----|
 E|-------------|------------------|------------------|----------|7//9|

Well it didn't sound exactly like that
But anyhow, you get the picture
But I found my focus
And I found my steam
For the rest of my life
I'm gonna fight for this dream you know
This time I'm going all the way
This time I'm going all the way
This time I'm going all the way
This time I'm going all the way
 
 E|-------------|--------------|9----|-------------|--------------|---------|
 B|-------------|--------------|9----|-------------|--------------|---------|
 G|-------------|--------------|9----|-------------|--------------|5--------|
 D|-------------|--------------|-----|-------------|--------------|5--------|
 A|7-----7------|9-7---9----7-9|-----|7-----7------|9-7---9----7-9|5--------|
 E|--9-7---9-7-9|----9----9----|-----|--9-7---9-7-9|----9----9----|---------|

And after that everything changed
I got what iI wanted but my hunger
Stayed the same
[D]Now that I'm older
I've still got to learn things twice
When we first met
You were looking for a man
I was acting like a boy
And you gave me the hand
And you said mm-hmm
But I was so used to getting what I wanted
Mm-hmm
[D]  
 
 E|--------------|---------|-----------------------|------------------------|------|--------------------|
 B|--------------|---------|-----------------------|------------------------|------|--------------------|
 G|--------------|---------|-----------------------|------------------------|------|--------------------|
 D|--------------|---------|-----------------------|--------12-10-----------|------|---------------12-10|
 A|--------------|---------|-----10p8----10-8------|10p8--------------------|------|-------10p8---------|
 E|10--10--10--10|---10--10|--10------10------10-10|-----10-------10--10--10|10--10|10-10-------10------|
 E|-----------------------|
 B|-----------------------|
 G|-----------------------|
 D|--------12-10----------|
 A|--------------10-------|
 E|10--10-----------13--10|

Well that happened many more times
Due to various reasons
Usually whiskey
But you gave me another chance
And this time it's good
I'm so down for romance
And treating you like I should
 
 E|----------|----------|----------|---------------------|
 B|----------|----------|----------|---------------------|
 G|----------|----------|----------|---------------------|
 D|----------|----------|----------|----------------12-10|
 A|----------|----------|----------|--------10p8---------|
 E|10--10--10|10--10--10|10--10--10|10--10-------10------|

And you say...
Baby, baby
Baby, baby
 
 E|---------------------|
 B|13b15--13b15~~~------|
 G|-----------------12~~|
 D|---------------------|
 A|---------------------| x2
 E|---------------------|

Well you don't exactly say that
But anyhow, you get the picture
[D]But we got our focus and we got our steam
For the rest of our lives
We're gonna fight for this dream you know
This time we're going all the way
This time we're going all the way
This time we're going all the way
 
 E|---------------|
 B|---------------|
 G|---------------|
 D|---------------|
 A|10p8----10-8---| x3
 E|-----10------10|

This time we're going all the way
 
 E|--------------|-----------------|-------------------|10----|-----------------|-------------------|10----|
 B|--------------|-----------------|-------------------|10----|-----------------|-------------------|10----|
 G|--------------|-----------------|-------------------|10----|-----------------|-------------------|10----|
 D|---------12-10|-----------------|-------------------|------|-----------------|-------------------|------|
 A|10p8----------|8------8---------|10-8----10-----8-10|------|8------8---------|10-8----10-----8-10|------|
 E|-----10-------|--10-8----10-8-10|-----10-----10-----|------|--10-8----10-8-10|-----10-----10-----|------|
 E|-----------------|-------------------|
 B|-----------------|-------------------|
 G|-----------------|-------------------|
 D|-----------------|-------------------|
 A|8------8---------|10-8----10-----8-10|
 E|--10-8----10-8-10|-----10-----10-----|

So if you get it wrong, go back and do it right
Find out what you love, and hold on to it tight
This time we're going all the way
This time we're going all the way
This time we're going all the way
 
 E|-----------------------|
 B|-----------------------|
 G|-----------------------|
 D|-----------------------|
 A|10p8----10-8-----------| x3
 E|-----10------10--10--10|

This time we're going all the way
 
 E|------------------------|
 B|------------------------|
 G|------------------------|
 D|12-10--------12-10------|
 A|------10-12--------10-12|
 E|------------------------|

alternate between these for a while
 
 E|-----------------------|
 B|-----------------------|
 G|-----------------------|
 D|-----------------------|
 A|10p8----10-8-----------|
 E|-----10------10--10--10|
 E|-----------------|-------------------|
 B|-----------------|-------------------|
 G|-----------------|-------------------|
 D|-----------------|-------------------|
 A|8------8---------|10-8----10-----8-10|
 E|--10-8----10-8-10|-----10-----10-----|

Very effected outro
 
 E|------------------------------------|10h12-12----------------------------|10-------------------------|
 B|10h13-13-13--10h13p10---------------|---------10h13-13p10--10-10-10-10-10|---13----------------------|
 G|----------------------12p10---------|------------------------------------|------12-10-12-10----------|
 D|----------------------------12-12-12|------------------------------------|-------------------10h12-12|
 A|------------------------------------|------------------------------------|---------------------------|
 E|------------------------------------|------------------------------------|---------------------------|
 E|--------------------------------|--------------------------------|
 B|------------11p10---------------|-----------------------10----12~|
 G|10-9--11-9--------12p10---------|9h10----------------11----11----|
 D|------------------------12p10-12|-----10----12--9h12-------------|
 A|--------------------------------|--------12----------------------|
 E|--------------------------------|--------------------------------| 


Important: The song above is NOT stored on the Chordie server. The original song is hosted at www.azchords.com. Chordie works as a search engine and provides on-the-fly formatting. Chordie does not index songs against artists'/composers' will. To remove this song please click here.

Text color:
Chord color:
Chord grids: 
Font size:    
Page size: 

C# D
Rate #1 of 1 versions

Jango Player

Login - add to songbook

SHARE PAGE  



You need to log in to post comments