Guitar Tabs, Chords and Lyrics
Server problems seems to be fixed. Chordie has been experiencing problems with songs disappearing. These issues now seems to be fixed, but still verifying the fix. If you find anything strange, please email admin@chordie.com.


Wait Out the Days  Rocky Votolato

Standard Tuning: Capo 2
Intro:
 
 e|--2--2-2----2--2----2--2-2--2-2--------------------------------------------|
 B|--3--3-3----3--3----3--3-3--3-3--------------------------------------------|
 G|--2-------0p2--2--2-2-------0h2--------------------------------------------|
 D|---------------0----0-------0----------------------------------------------|
 A|---------------------------------------------------------------------------|
 E|---------------------------------------------------------------------------|

Verse:
When the [D]memory is a bl[G]ank page
And the [D]teeth in your mouth are all [A]cliches[Bm]
Your heart is a [G]bag of rocks
And your [Em]soul is a pile of [A]ashes on the sidewalk[Bm]
There's an eagle scout p[G]roject
[Em]I used to come to to f[A]eel some kind of magic[Bm]
Now a story [G]less - we'll [D]wait [A]out the d[D]ays
Little Diddy:
 
 e|-------0h2-----------------------------------------------------------------|
 B|-----------3---------------------------------------------------------------|
 G|-----2---------------------------------------------------------------------|
 D|---0-----------------------------------------------------------------------|
 A|---------------------------------------------------------------------------|
 E|---------------------------------------------------------------------------|

Chorus:
[D]Wait out the [G]days
Till [D]death comes to c[A]laim
Any[Bm]thing that life didn't al[G]ready take
You can [D]wait [A]out the d[D]ays

Important: The song above is NOT stored on the Chordie server. The original song is hosted at www.azchords.com. Chordie works as a search engine and provides on-the-fly formatting. Chordie does not index songs against artists'/composers' will. To remove this song please click here.

Text color:
Chord color:
Chord grids: 
Font size:    
Page size: 

A Bm D Em G
Rate #1 of 3 versions

Login - add to songbook

SHARE PAGE  




You need to log in to post comments