Guitar Tabs, Chords and Lyrics
Server problems seems to be fixed. Chordie has been experiencing problems with songs disappearing. These issues now seems to be fixed, but still verifying the fix. If you find anything strange, please email admin@chordie.com.


My Elusive Dreams  Roger Miller

Roger Miller
‚??My Elusive Dreams‚??
Capo 2
Intro
 
 e----2-0------3-2-0----2-0---------0--
 B----3-3-3----3-3-3----3-3-3-----2-2-2
 G---2----2------------2----2----2----2
 D--0---------0-------0---------2------
 A-----------------------------0-------
 E-----------3-------------------------

[D] [G] [D] [A]  
Verse rhythm
 
 e------2--2----------3--3-------0‚??0-----------2--2-
 B-------3--3----------3--3-------2--2----------3--3
 G---2----------------------------------------2-----
 D--0----------------0----------2------------0------
 A-----------------------------0--------------------
 E------------------3-------------------------------

You[D] followed me to [G]Texas, you [A]followed me to [D]Utah
D G A (repeat above rhythms)
We didn‚??t find it there so we moved on
[D]Then you went with me to [G]Al-a-bam
[A]Things looked good in[D] Birmingham
[D]But we didn‚??t find i[G]t there so we move[A]d on
Chorus (walkup A to D)
 
 e---------------
 B---------------
 G----------------2 (repeat above rhythms)
 D---------------0
 A--0--2---4-----
 E---------------

I know you're [D]tired of [G]fol-low-ing
[A]My elusive [D]dreams and schemes
[G]For they're only [D]fleeting things,
A D(start intro here)
My elusive dreams
Verse 2
You had my child in Memphis then I heard of work in Nashville
But we didn't find it there so we moved on
To a small farm in Nebraska, to a gold mine in Alaska
We didn't find it there so we moved on
Verse 3
Now we've left Alaska because there was no gold mine
But this time only two of us moved on
And now all we have is each other and a little memory
To cling to and still you won't let me go on alone

Important: The song above is NOT stored on the Chordie server. The original song is hosted at www.azchords.com. Chordie works as a search engine and provides on-the-fly formatting. Chordie does not index songs against artists'/composers' will. To remove this song please click here.

Text color:
Chord color:
Chord grids: 
Font size:    
Page size: 

A D G
Rate #1 of 1 versions

Login - add to songbook

SHARE PAGE  




You need to log in to post comments