Guitar Tabs, Chords and Lyrics
Server problems seems to be fixed. Chordie has been experiencing problems with songs disappearing. These issues now seems to be fixed, but still verifying the fix. If you find anything strange, please email admin@chordie.com.


Country Honk  The Rolling Stones

Gtr I (E A D G B E) - 'Keith Richards - Acoustic Guitar'
Gtr II (D G D G B D) - 'Mick Taylor - Acoustic Guitar (Open G - DGDGBD / w/ slide)'
Intro
Q=120
[G]  
[4/4] Gtr I (Ac. Gtr.)
E E +H. E E E E E E E E E E E E E E E E
 
 |---^3-(3)------|-----------------|-----------------|
 |---^0-(0)------|-----------------|-----------------|
 |---^0-(0)------|-----0-0-0-0-0-0-|-0-0-0-0-0---0-0-|
 |---^0-(0)------|-----0-0-0-0-0-0-|-0-0-0-0-0---0-0-|
 |---^2-(2)------|-----0-2-3-2-0-2-|-3-2-0-2-0---0-2-|
 |-3-------------|-0-3-------------|-----------3-----|

[C]  
[E] [E] [E] [E] [E] [E] [E] [E] [E] [E] [E] [E] [E] [E] [E] [E]  
 
 |-----------------|------------------|
 |-----------------|------------------|
 |-----0-0-0-0-0-0-|-0-0-0-0-0---0-0--|
 |-----0-2-3-2-0-2-|-3-2-0-2-0---0-2--|
 |-0-3-3-3-3-3-3-3-|-3-3-3-3-3-3-3-3--|
 |-----------------|------------------|

[G]E E E E E E E E [D]E E E E [D/F#]E E E E [G]Q E E E E E E E E E E E E E E
 
 |-----------------|-----2-2-----2-2-|-3--3-3-3-3-3-3-|-3-3-1-0---------||
 |-----------------|-----3-3-----3-3-|-0--0-0-0-0-0-0-|-0-0-0-0-3-------||
 |-----0-0-0-0-0-0-|---2-2-2-----2-2-|-0--0-0-0-0-0-0-|-0-------0-0-3-2-||
 |-----0-0-0-0-0-0-|-0---0-0-----0-0-|-0--0-0-0-0-0-0-|-0-----------0-0-||
 |-----0-2-3-2-0-2-|-----------0-----|-2--2-2-2-2-2-2-|-2---------------||
 |-0-3-------------|---------2-------|-3--3-3-3-3-3-3-|-3---------------||

1st Verse
[G] [C] 
[E] [E] [E] [E] [E] [E] [E] [E] [E] [E] [E] [E] [E] [E] [E] [E] [E] [E] [E] [E] [E] [E] [E] [E] [E] [E] [E] [E] [E] [E] [E] [E]  
 
 |-----------------|-----------------|-----------------|-----------------|
 |-----------------|-----------------|-----------------|-----------------|
 |-----0-0-0-0-0-0-|-0-0-0-0-0---0-0-|-----0-0-0-0-0-0-|-0-0-0-0-0---0-0-|
 |-----0-0-0-0-0-0-|-0-0-0-0-0---0-0-|-----0-2-3-2-0-2-|-3-2-0-2-0---0-2-|
 |-----0-2-3-2-0-2-|-3-2-0-2-0---0-2-|-0-3-3-3-3-3-3-3-|-3-3-3-3-3-3-3-3-|
 |-0-3-------------|-----------3-----|-----------------|-----------------|

[G] [A7] [D] [D/F#] 
[E] [E] [E] [E] [E] [E] [E] [E] [E] [E] [E] [E] [E] [E] [E] [E] [E] [E] [E] [E] [E] [E] [E] [E] [E] [E] [E] [E] [E] [E] [E] [E]  
 
 |-----------------|-----2-3-3-3-----|-----2-2-2-2-2---|-----2-2-----2-2-|
 |-----------------|-----2-2-2-2-----|-----3-3-3-3-3---|-----3-3-----3-3-|
 |-----0-0-0-0-0-0-|-----2-2-2-2-2---|---2-2-2-2-2-2---|-----2-2-----2-2-|
 |-----0-0-0-0-0-0-|---2-----------0-|-0---0-0-0-0-0-0-|-----0-0---0-0-0-|
 |-----0-2-3-2-0-2-|-0---------------|-----------------|---0-----0-------|
 |-0-3-------------|-----------------|-----------------|-2---------------|

[G] [C] 
[E] [E] [E] [E] [E] [E] [E] [E] [E] [E] [E] [E] [E] [E] [E] [E] [E] [E] [E] [E] [E] [E] [E] [E] [E] [E] [E] [E] [E] [E] [E] [E]  
 
 |-----------------|-----------------|-----------------|-----------------|
 |-----------------|-----------------|-----------------|-----------------|
 |-----0-0-0-0-0-0-|-0-0-0-0-0---0-0-|-----0-0-0-0-0-0-|-0-0-0-0-0---0-0-|
 |-----0-0-0-0-0-0-|-0-0-0-0-0---0-0-|-----0-2-3-2-0-2-|-3-2-0-2-0---0-2-|
 |-----0-2-3-2-0-2-|-3-2-0-2-0---0-2-|-0-3-3-3-3-3-3-3-|-3-3-3-3-3-3-3-3-|
 |-0-3-------------|-----------3-----|-----------------|-----------------|

[G]E E E E E E E E [D]E E E E [D/F#]E E E E [G]Q E E E E E E E E E E E E E E
 
 |-----------------|-----2-2-----2-2-|-3--3-3-3-3-3-3-|-3-3-1-0---------||
 |-----------------|-----3-3-----3-3-|-0--0-0-0-0-0-0-|-0-0-0-0-3-------||
 |-----0-0-0-0-0-0-|---2-2-2-----2-2-|-0--0-0-0-0-0-0-|-0-------0-0-3-2-||
 |-----0-0-0-0-0-0-|-0---0-0-----0-0-|-0--0-0-0-0-0-0-|-0-----------0-0-||
 |-----0-2-3-2-0-2-|-----------0-----|-2--2-2-2-2-2-2-|-2---------------||
 |-0-3-------------|---------2-------|-3--3-3-3-3-3-3-|-3---------------||

Chorus
[G]Q E E E E E E [D]Q E E E E E E [G]Q E E E E E E E E E E E E E E
 
 |-3--3-3-3-3-3-3-|-2--2-2-2-2-2-2-|-3--3-3-3-3-3-3-|-3-3-1-0---------|
 |-0--0-0-0-0-0-0-|-3--3-3-3-3-3-3-|-0--0-0-0-0-0-0-|-0-0-0-0-3-------|
 |-0--0-0-0-0-0-0-|-2--2-2-2-2-2-2-|-0--0-0-0-0-0-0-|-0-------0-0-3-2-|
 |-0--0-0-0-0-0-0-|-0--0-0-0-0-0-0-|-0--0-0-0-0-0-0-|-0-----------0-0-|
 |-2--2-2-2-2-2-2-|----------------|-2--2-2-2-2-2-2-|-2---------------|
 |-3--3-3-3-3-3-3-|----------------|-3--3-3-3-3-3-3-|-3---------------|

Q E E E E E E [D]Q E E E E E E [G]Q E E E E E E Q E E E E E E
 
 |-3--3-3-3-3-3-3-|-2--2-2-2-2-2-2-|-3--3-3-3-3-3-3-|-3--3-3-3-3-3-3-||
 |-0--0-0-0-0-0-0-|-3--3-3-3-3-3-3-|-0--0-0-0-0-0-0-|-0--0-0-0-0-0-0-||
 |-0--0-0-0-0-0-0-|-2--2-2-2-2-2-2-|-0--0-0-0-0-0-0-|-0--0-0-0-0-0-0-||
 |-0--0-0-0-0-0-0-|-0--0-0-0-0-0-0-|-0--0-0-0-0-0-0-|-0--0-0-0-0-0-0-||
 |-2--2-2-2-2-2-2-|----------------|-2--2-2-2-2-2-2-|-2--2-2-2-2-2-2-||
 |-3--3-3-3-3-3-3-|----------------|-3--3-3-3-3-3-3-|-3--3-3-3-3-3-3-||

2nd & 3rd Verses
[G] [C] 
[E] [E] [E] [E] [E] [E] [E] [E] [E] [E] [E] [E] [E] [E] [E] [E] [E] [E] [E] [E] [E] [E] [E] [E] [E] [E] [E] [E] [E] [E] [E] [E]  
 
 ||------------------|-----------------|-----------------|------------------|
 ||o-----------------|-----------------|-----------------|------------------|
 ||------0-0-0-0-0-0-|-0-0-0-0-0---0-0-|-----0-0-0-0-0-0-|-0-0-0-0-0---0-0--|
 ||------0-0-0-0-0-0-|-0-0-0-0-0---0-0-|-----0-2-3-2-0-2-|-3-2-0-2-0---0-2--|
 ||o-----0-2-3-2-0-2-|-3-2-0-2-0---0-2-|-0-3-3-3-3-3-3-3-|-3-3-3-3-3-3-3-3--|
 ||--0-3-------------|-----------3-----|-----------------|------------------|

[G]Gtr I[A7] [D] [D/F#]
[E] [E] [E] [E] [E] [E] [E] [E] [E] [E] [E] [E] [E] [E] [E] [E] [E] [E] [E] [E] [E] [E] [E] [E] [E] [E] [E] [E] [E] [E] [E] [E]  
 
 |-----------------|-----2-3-3-3-----|-----2-2--2--2-2---|-----2-2-----2-2-|
 |-----------------|-----2-2-2-2-----|-----3-3--3--3-3---|-----3-3-----3-3-|
 |-----0-0-0-0-0-0-|-----2-2-2-2-2---|---2-2-2--2--2-2---|-----2-2-----2-2-|
 |-----0-0-0-0-0-0-|---2-----------0-|-0---0-0--0--0-0-0-|-----0-0---0-0-0-|
 |-----0-2-3-2-0-2-|-0---------------|-------------------|---0-----0-------|
 |-0-3-------------|-----------------|-------------------|-2---------------|

|
| Gtr II (Ac. Gtr. - Open G / DGDGBD - w/ slide)
| ~~~~~~
| W H Q E E E E E E +H W
 
 |-----------------|-----------------|---7---------------|-----------------|
 |-----------------|---------------5s|=7---7-------------|-----------------|
 |-----------------|-----------------|-------7-(7)-------|-----------------|
 |-----------------|-----------------|-------------------|-----------------|
 |-----------------|-----------------|-------------------|-----------------|
 |-----------------|-----------------|-------------------|-----------------|

[G] [C] 
[E] [E] [E] [E] [E] [E] [E] [E] [E] [E] [E] [E] [E] [E] [E] [E] [E] [E] [E] [E] [E] [E] [E] [E] [E] [E] [E] [E] [E] [E] [E] [E]  
 
 |-----------------|-----------------|-------------------|-----------------|
 |-----------------|-----------------|-------------------|-----------------|
 |-----0-0-0-0-0-0-|-0-0-0-0-0---0-0-|-----0-0--0--0-0-0-|-0-0-0-0-0---0-0-|
 |-----0-0-0-0-0-0-|-0-0-0-0-0---0-0-|-----0-2--3--2-0-2-|-3-2-0-2-0---0-2-|
 |-----0-2-3-2-0-2-|-3-2-0-2-0---0-2-|-0-3-3-3--3--3-3-3-|-3-3-3-3-3-3-3-3-|
 |-0-3-------------|-----------3-----|-------------------|-----------------|

|
| ~~~~~~
| W H Q E E E E E E +H W
 
 |-----------------|-----------------|---5-7-------------|-----------------|
 |-----------------|---------------3s|=5-----5-(5)-------|-----------------|
 |-----------------|-----------------|-------------------|-----------------|
 |-----------------|-----------------|-------------------|-----------------|
 |-----------------|-----------------|-------------------|-----------------|
 |-----------------|-----------------|-------------------|-----------------|

[G] [D] [D/F#]  
[E] [E] [E] [E] [E] [E] [E] [E] [E] [E] [E] [E] [E] [E] [E] [E]  
 
 |-----------------|-----2-2-----2-2-|
 |-----------------|-----3-3-----3-3-|
 |-----0-0-0-0-0-0-|---2-2-2-----2-2-|
 |-----0-0-0-0-0-0-|-0---0-0-----0-0-|
 |-----0-2-3-2-0-2-|-----------0-----|
 |-0-3-------------|---------2-------|

|
| W W
 
 |-----------------|-----------------|
 |-----------------|-----------------|
 |-----------------|-----------------|
 |-----------------|-----------------|
 |-----------------|-----------------|
 |-----------------|-----------------|

[G]Q E E E E E E E E E E E E E E
 
 |-3--3---3---3--3-3-3-|-3-3-1---0------------||
 |-0--0---0---0--0-0-0-|-0-0-0---0---3--------||
 |-0--0---0---0--0-0-0-|-0-----------0--0-3-2-||
 |-0--0---0---0--0-0-0-|-0----------------0-0-||
 |-2--2---2---2--2-2-2-|-2--------------------||
 |-3--3---3---3--3-3-3-|-3--------------------||

|
| ~~~~~~~ ~~~~~~~
| Q E E +H Q E E +H
 
 |------/12-(12)-------|-------/12-(12)-------||
 |------/12-(12)-------|-------/12-(12)-------||
 |------/12-(12)-------|-------/12-(12)-------||
 |---------------------|----------------------||
 |---------------------|----------------------||
 |---------------------|----------------------||

Chorus
[G]Q E E E E E E [D]Q E E E E E E
 
 |-3------3-3--3-3-3-3-|-2--2-2-2-2-2-2-|
 |-0------0-0--0-0-0-0-|-3--3-3-3-3-3-3-|
 |-0------0-0--0-0-0-0-|-2--2-2-2-2-2-2-|
 |-0------0-0--0-0-0-0-|-0--0-0-0-0-0-0-|
 |-2------2-2--2-2-2-2-|----------------|
 |-3------3-3--3-3-3-3-|----------------|

|
| ~~
| E E Q H W
 
 |---/12-12---12-------|----------------|
 |---/12-12---12-------|----------------|
 |---/12-12---12-------|----------------|
 |---------------------|----------------|
 |---------------------|----------------|
 |---------------------|----------------|

[G]Q E E E E E E Q E E E E E E
 
 |-3--3---3---3--3-3-3-|-3-----3--3--3-3-3-3-|
 |-0--0---0---0--0-0-0-|-0-----0--0--0-0-0-0-|
 |-0--0---0---0--0-0-0-|-0-----0--0--0-0-0-0-|
 |-0--0---0---0--0-0-0-|-0-----0--0--0-0-0-0-|
 |-2--2---2---2--2-2-2-|-2-----2--2--2-2-2-2-|
 |-3--3---3---3--3-3-3-|-3-----3--3--3-3-3-3-|

|
| ~~~~~~~ ~~
| Q E E +H E Q E H
 
 |------/12-(12)-------|---/12---12-12-------|
 |------/12-(12)-------|---/12---12-12-------|
 |------/12-(12)-------|---/12---12-12-------|
 |---------------------|---------------------|
 |---------------------|---------------------|
 |---------------------|---------------------|

Q E E E E E E [D]Q E E E E E E
 
 |-3------3-3--3-3-3-3-|-2--2-2-2-2-2-2-|
 |-0------0-0--0-0-0-0-|-3--3-3-3-3-3-3-|
 |-0------0-0--0-0-0-0-|-2--2-2-2-2-2-2-|
 |-0------0-0--0-0-0-0-|-0--0-0-0-0-0-0-|
 |-2------2-2--2-2-2-2-|----------------|
 |-3------3-3--3-3-3-3-|----------------|

|
| ~~
| E E Q H W
 
 |---/12-12---12-------|----------------|
 |---/12-12---12-------|----------------|
 |---/12-12---12-------|----------------|
 |---------------------|----------------|
 |---------------------|----------------|
 |---------------------|----------------|

1.
[G]Q E E E E E E Q E E E E E E
 
 |-3--3---3---3--3-3-3-|-3-----3--3--3-3-3-3--||
 |-0--0---0---0--0-0-0-|-0-----0--0--0-0-0-0-o||
 |-0--0---0---0--0-0-0-|-0-----0--0--0-0-0-0--||
 |-0--0---0---0--0-0-0-|-0-----0--0--0-0-0-0--||
 |-2--2---2---2--2-2-2-|-2-----2--2--2-2-2-2-o||
 |-3--3---3---3--3-3-3-|-3-----3--3--3-3-3-3--||

|
| ~~~~~~~ ~~
| Q E E +H E Q E H
 
 |------/12-(12)-------|---/12---12-12--------||
 |------/12-(12)-------|---/12---12-12-------o||
 |------/12-(12)-------|---/12---12-12--------||
 |---------------------|----------------------||
 |---------------------|---------------------o||
 |---------------------|----------------------||

2.
[G]Q E E E E E E Q E E E E E E
 
 |-3--3---3---3--3-3-3-|-3-----3--3--3-3-3-3-|
 |-0--0---0---0--0-0-0-|-0-----0--0--0-0-0-0-|
 |-0--0---0---0--0-0-0-|-0-----0--0--0-0-0-0-|
 |-0--0---0---0--0-0-0-|-0-----0--0--0-0-0-0-|
 |-2--2---2---2--2-2-2-|-2-----2--2--2-2-2-2-|
 |-3--3---3---3--3-3-3-|-3-----3--3--3-3-3-3-|

|
| ~~~~~~~ ~~
| Q E E +H E Q E H
 
 |------/12-(12)-------|---/12---12-12-------|
 |------/12-(12)-------|---/12---12-12-------|
 |------/12-(12)-------|---/12---12-12-------|
 |---------------------|---------------------|
 |---------------------|---------------------|
 |---------------------|---------------------|

[D]Q E E E E E E [G]Q E E E E E E
 
 |-2--2-2-2-2-2-2-|-3--3---3---3--3-3-3-|
 |-3--3-3-3-3-3-3-|-0--0---0---0--0-0-0-|
 |-2--2-2-2-2-2-2-|-0--0---0---0--0-0-0-|
 |-0--0-0-0-0-0-0-|-0--0---0---0--0-0-0-|
 |----------------|-2--2---2---2--2-2-2-|
 |----------------|-3--3---3---3--3-3-3-|

|
| ~~~~~~~
| W Q E E +H
 
 |----------------|------/12-(12)-------|
 |----------------|------/12-(12)-------|
 |----------------|------/12-(12)-------|
 |----------------|---------------------|
 |----------------|---------------------|
 |----------------|---------------------|

Q E E E E E E Q E E E E E E [D]Q E E [D/F#]E E E E
 
 |-3-----3--3--3-3-3-3-|-3--3---3---3--3-3-3-|-2--2-2---2-2-2-|
 |-0-----0--0--0-0-0-0-|-0--0---0---0--0-0-0-|-3--3-3---3-3-3-|
 |-0-----0--0--0-0-0-0-|-0--0---0---0--0-0-0-|-2--2-2---2-2-2-|
 |-0-----0--0--0-0-0-0-|-0--0---0---0--0-0-0-|-0--0-0---0-0-0-|
 |-2-----2--2--2-2-2-2-|-2--2---2---2--2-2-2-|----------------|
 |-3-----3--3--3-3-3-3-|-3--3---3---3--3-3-3-|--------2-------|

|
| ~~ ~~~~~~~
| E Q E H Q E E +H W
 
 |---/12---12-12-------|------/12-(12)-------|----------------|
 |---/12---12-12-------|------/12-(12)-------|----------------|
 |---/12---12-12-------|------/12-(12)-------|----------------|
 |---------------------|---------------------|----------------|
 |---------------------|---------------------|----------------|
 |---------------------|---------------------|----------------|

[G]Q E E E E E E E E E E H +W
 
 |-3----3-3---3---3--3-3-|--3--3-----3--x---3-----|--(3)----*|
 |-0----0-0---0---0--0-0-|--0--0-----0--x---0-----|--(0)----*|
 |-0----0-0---0---0--0-0-|--0--0-----0--x---0-----|--(0)----*|
 |-0----0-0---0---0--0-0-|--0--0-----0--x---0-----|--(0)----*|
 |-2----2-2---2---2--2-2-|--2--2-----2--x---2-----|--(2)----*|
 |-3----3-3---3---3--3-3-|--3--3-----3--x---3-----|--(3)----*|

|
| ~~~~~~~~~~~~~~~~~
| Q Q +E E E E E E a E E +H +W
 
 |----/12---(12)-12-12---|-12s10------------------|---------*|
 |----/12---(12)-12-12---|-------10s12------------|---------*|
 |----/12---(12)---------|-------------12-(12)----|-(12)----*|
 |-----------------------|------------------------|---------*|
 |-----------------------|------------------------|---------*|
 |-----------------------|------------------------|---------*| 


Important: The song above is NOT stored on the Chordie server. The original song is hosted at www.azchords.com. Chordie works as a search engine and provides on-the-fly formatting. Chordie does not index songs against artists'/composers' will. To remove this song please click here.

Text color:
Chord color:
Chord grids: 
Font size:    
Page size: 

A7 C D D/F# E G
Rate #1 of 4 versions

Jango Player

Login - add to songbook

SHARE PAGE  



You need to log in to post comments