Guitar Tabs, Chords and Lyrics
Server problems seems to be fixed. Chordie has been experiencing problems with songs disappearing. These issues now seems to be fixed, but still verifying the fix. If you find anything strange, please email admin@chordie.com.


Doncha Bother Me  The Rolling Stones

Intro
Q=120(8=s8)
N.C. A
[4/4] Gtr III (Ac. Gtr.)
W W E E E E E E E E
 
 |----------|----------|-------------------|
 |----------|----------|-------------------|
 |----------|----------|-6-6-6-6--6--6-6-6-|
 |----------|----------|-7-7-7-7--7--7-7-7-|
 |----------|----------|-7-7-9-9-10-10-9-7-|
 |----------|----------|-5-5-5-5--5--5-5-5-|

Gtr I (Clean El. Gtr. w/ slide)
[E] [E] [E] [E] [B] [E] [E] [E] [E] [B] [E] [E] [E] [E] [B]  
 
 |-----17-17-17-17--------|-----17-17-17-17--------|-----17-17-17-17--------||
 |-/17--------------------|-/17--------------------|-/17--------------------||
 |-/17--------------------|-/17--------------------|-/17--------------------||
 |------------------------|------------------------|------------------------||
 |------------------------|------------------------|------------------------||
 |------------------------|------------------------|------------------------||

|
| Gtr III
| E E E E E E E E E E E E E E E E E E E E E E E E
 
 |------------------------|------------------------|------------------------||
 |------------------------|------------------------|------------------------||
 |---6--6--6--6--6--6-6-6-|---6--6--6--6--6--6-6-6-|---6--6--6--6--6--6-6-6-||
 |---7--7--7--7--7--7-7-7-|---7--7--7--7--7--7-7-7-|---7--7--7--7--7--7-7-7-||
 |---7--7--9--9-10-10-9-7-|---7--7--9--9-10-10-9-7-|---7--7--9--9-10-10-9-7-||
 |---5--5--5--5--5--5-5-5-|---5--5--5--5--5--5-5-5-|---5--5--5--5--5--5-5-5-||

1st - 3rd Verses
$
[D]  
[E] [E] [E] [E] [E] [E] [E] [E] [E] [E] [E] [E] [E] [E] [E] [E]  
 
 ||------------------|-----------------|
 ||o-----------------|-----------------|
 ||------------------|-----------------|
 ||--7---9---7---9---|-7---9---7---9---|
 ||o-5-5-5-5-5-5-5-5-|-5-5-5-5-5-5-5-5-|
 ||------------------|-----------------|

|
| Gtr II (Clean El. Gtr.)
| E E E E E E E E E E E E E E E E
 
 ||------------------|-----------------|
 ||o-----3-----------|-3-----------3---|
 ||------------2-----|-------2---------|
 ||--3h4---3h4---3h4-|---3h4---3h4---3h|
 ||o-----------------|-----------------|
 ||------------------|-----------------|

|
| Gtr III
| E E E E E E E E E E E E E E E E
 
 ||------------------|-----------------|
 ||o-7-7-7-7-7-7-7-7-|-7-7-7-7-7-7-7-7-|
 ||--7-7-7-7-7-7-7-7-|-7-7-7-7-7-7-7-7-|
 ||--7-7-9-7-7-7-9-7-|-7-7-9-7-7-7-9-7-|
 ||o-5-5-5-5-5-5-5-5-|-5-5-5-5-5-5-5-5-|
 ||------------------|-----------------|

[A]  
[E] [E] [E] [E] [B] [E] [E] [E] [E] [B]  
 
 |-----17-17-17-17--------|-----17-17-17-17--------|
 |-/17--------------------|-/17--------------------|
 |-/17--------------------|-/17--------------------|
 |------------------------|------------------------|
 |------------------------|------------------------|
 |------------------------|------------------------|

|
| W W
 
 |------------------------|------------------------|
 |------------------------|------------------------|
 |------------------------|------------------------|
 |---4--------------------|------------------------|
 |------------------------|------------------------|
 |------------------------|------------------------|

|
| E E E E E E E E E E E E E E E E
 
 |------------------------|------------------------|
 |------------------------|------------------------|
 |---6--6--6--6--6--6-6-6-|---6--6--6--6--6--6-6-6-|
 |---7--7--7--7--7--7-7-7-|---7--7--7--7--7--7-7-7-|
 |---7--7--9--9-10-10-9-7-|---7--7--9--9-10-10-9-7-|
 |---5--5--5--5--5--5-5-5-|---5--5--5--5--5--5-5-5-|

[D]  
[E] [E] [E] [E] [E] [E] [E] [E] [E] [E] [E] [E] [E] [E] [E] [E]  
 
 |-----------------|-----------------|
 |-----------------|-----------------|
 |-----------------|-----------------|
 |-7---9---7---9---|-7---9---7---9---|
 |-5-5-5-5-5-5-5-5-|-5-5-5-5-5-5-5-5-|
 |-----------------|-----------------|

|
| E E E E E E E E E E E E E E E E
 
 |-----------------|-----------------|
 |-----3-----------|-3-----------3---|
 |-----------2-----|-------2---------|
 |-3h4---3h4---3h4-|---3h4---3h4---3h|
 |-----------------|-----------------|
 |-----------------|-----------------|

|
| E E E E E E E E E E E E E E E E
 
 |-----------------|-----------------|
 |-7-7-7-7-7-7-7-7-|-7-7-7-7-7-7-7-7-|
 |-7-7-7-7-7-7-7-7-|-7-7-7-7-7-7-7-7-|
 |-7-7-9-7-7-7-9-7-|-7-7-9-7-7-7-9-7-|
 |-5-5-5-5-5-5-5-5-|-5-5-5-5-5-5-5-5-|
 |-----------------|-----------------|

[A]  
[E] [E] [E] [E] [B] [E] [E] [E] [E] [B]  
 
 |-----17-17-17-17--------|-----17-17-17-17---------|
 |-/17--------------------|-/17---------------------|
 |-/17--------------------|-/17---------------------|
 |------------------------|-------------------------|
 |------------------------|-------------------------|
 |------------------------|-------------------------|

|
| W W
 
 |------------------------|-------------------------|
 |------------------------|-------------------------|
 |------------------------|-------------------------|
 |---4--------------------|-------------------------|
 |------------------------|-------------------------|
 |------------------------|-------------------------|

|
| E E E E E E E E E E E E E E E E
 
 |------------------------|-------------------------|
 |------------------------|-------------------------|
 |---6--6--6--6--6--6-6-6-|---6--6--6--6--6--6-6-6--|
 |---7--7--7--7--7--7-7-7-|---7--7--7--7--7--7-7-7--|
 |---7--7--9--9-10-10-9-7-|---7--7--9--9-10-10-9-7--|
 |---5--5--5--5--5--5-5-5-|---5--5--5--5--5--5-5-5--|

[E] [D]  
[E] [E] [E] [E] [E] [E] [E] [E] [E] [E] [E] [E] [E] [E] [E] [E]  
 
 |--------------------|-------------------|
 |--------------------|-------------------|
 |--------------------|-------------------|
 |-9---11---9----11---|-7---9-----7---9---|
 |-7-7--7-7-7-7---7-7-|-5-5-5-5---5-5-5-5-|
 |--------------------|-------------------|

|
| E E E E E Q. E Q E a E Q E
 
 |------0-------------|-------------------|
 |------------0-------|---3---------3-----|
 |-0h1----0h1---------|-------2-----------|
 |--------------------|---------3h4-----3h|
 |--------------------|-------------------|
 |--------------------|-------------------|

|
| E E E E E E E E E E E E E E E E
 
 |--------------------|-------------------|
 |-9-9--9-9-9-9---9-9-|-7-7-7-7---7-7-7-7-|
 |-9-9--9-9-9-9---9-9-|-7-7-7-7---7-7-7-7-|
 |-9-9-11-9-9-9--11-9-|-7-7-9-7---7-7-9-7-|
 |-7-7--7-7-7-7---7-7-|-5-5-5-5---5-5-5-5-|
 |--------------------|-------------------|

1.
[A]  
[E] [E] [E] [E] [B] [E] [E] [E] [E] [B]  
 
 |-----17-17-17-17--------|-----17-17-17-17---------||
 |-/17--------------------|-/17--------------------o||
 |-/17--------------------|-/17---------------------||
 |------------------------|-------------------------||
 |------------------------|------------------------o||
 |------------------------|-------------------------||

|
| W W
 
 |------------------------|-------------------------||
 |------------------------|------------------------o||
 |------------------------|-------------------------||
 |---4--------------------|-------------------------||
 |------------------------|------------------------o||
 |------------------------|-------------------------||

|
| E E E E E E E E E E E E E E E E
 
 |------------------------|-------------------------||
 |------------------------|------------------------o||
 |---6--6--6--6--6--6-6-6-|---6--6--6--6--6--6-6-6--||
 |---7--7--7--7--7--7-7-7-|---7--7--7--7--7--7-7-7--||
 |---7--7--9--9-10-10-9-7-|---7--7--9--9-10-10-9-7-o||
 |---5--5--5--5--5--5-5-5-|---5--5--5--5--5--5-5-5--||

Bridge
2.,D.S.
E E E E H [E]E E E E Q E E
 
 |-----17-17-17-17--------||------------------|
 |-/17--------------------||------------------|
 |-/17--------------------||------------------|
 |------------------------||-----6---9---11-9-|
 |------------------------||---7-----7----7-7-|
 |------------------------||-------0----------|

|
| W E E E E E E E E
 
 |------------------------||------------------|
 |------------------------||------------------|
 |------------------------||------------------|
 |------------------------||-9-9-9-9-9-9--9-9-|
 |------------------------||-7-7-7-7-7-7--7-7-|
 |------------------------||-0-0-0-0-0-0--0-0-|

|
| E E E E E E E E E E E E E E E E
 
 |------------------------||------------------|
 |------------------------||-9-9-9-9-9-9--9-9-|
 |---6--6--6--6--6--6-6-6-||-9-9-9-9-9-9--9-9-|
 |---7--7--7--7--7--7-7-7-||-9-9-9-9-9-9--9-9-|
 |---7--7--9--9-10-10-9-7-||-7-7-7-7-7-7--7-7-|
 |---5--5--5--5--5--5-5-5-||------------------|

E E E E Q E E E E E E Q E E
 
 |------------------|-------------------|
 |------------------|-------------------|
 |------------------|-------------------|
 |-----6---9---11-9-|-----6---9---11-9--|
 |---7-----7----7-7-|---7-----7----7-7--|
 |-------0----------|-------0-----------|

|
| E E E E E E E E E E E E E E E E
 
 |------------------|-------------------|
 |------------------|-------------------|
 |------------------|-------------------|
 |-9-9-9-9-9-9--9-9-|-9-9-9-9-9-9--9-9--|
 |-7-7-7-7-7-7--7-7-|-7-7-7-7-7-7--7-7--|
 |-0-0-0-0-0-0--0-0-|-0-0-0-0-0-0--0-0--|

|
| E E E E E E E E E E E E E E E E
 
 |------------------|-------------------|
 |-9-9-9-9-9-9--9-9-|-9-9-9-9-9-9--9-9--|
 |-9-9-9-9-9-9--9-9-|-9-9-9-9-9-9--9-9--|
 |-9-9-9-9-9-9--9-9-|-9-9-9-9-9-9--9-9--|
 |-7-7-7-7-7-7--7-7-|-7-7-7-7-7-7--7-7--|
 |------------------|-------------------|

[D]  
[E] [E] [E] [E] [E] [E] [E] [E] [E] [E] [E] [E] [E] [E] [E] [E]  
 
 |------------------|---------------------|
 |------------------|---------------------|
 |------------------|---------------------|
 |-----------9-11---|-7-----9----7----9---|
 |---7---7---7--7---|-5-5---5-5--5--5-5-5-|
 |-0---0------------|---------------------|

|
| E E E E E E E E E E a E E +E Q E
 
 |------------------|---------------------|
 |------------------|---------------3-----|
 |------------------|---------2-(2)-----2-|
 |-9-9-9-9-9-9--9-9-|-0-0-3h4-------------|
 |-7-7-7-7-7-7--7-7-|---------------------|
 |-0-0-0-0-0-0--0-0-|---------------------|

|
| E E E E E E E E E E E E E E E E
 
 |------------------|---------------------|
 |-9-9-9-9-9-9--9-9-|-7-7---7-7--7--7-7-7-|
 |-9-9-9-9-9-9--9-9-|-7-7---7-7--7--7-7-7-|
 |-9-9-9-9-9-9--9-9-|-7-7---9-7--7--7-9-7-|
 |-7-7-7-7-7-7--7-7-|-5-5---5-5--5--5-5-5-|
 |------------------|---------------------|

To Coda
[A]  
[E] [E] [E] [E] [E] [E] [E] [E] [E] [E] [E] [E] [B]  
 
 |------------------|------17-17-17-17-----------|
 |------------------|-/17------------------------|
 |------------------|-/17------------------------|
 |-7---9---7----9---|----------------------------|
 |-5-5-5-5-5-5--5-5-|----------------------------|
 |------------------|----------------------------|

|
| H E Q. Q. E +Q. E
 
 |------------------|----------------------------|
 |------------------|----------------------------|
 |---------2--------|-------------2-(2)----------|
 |-----------4------|----------------------------|
 |------------------|---4--------------------3h==|
 |------------------|----------------------------|

|
| E E E E E E E E E E E E E E E E
 
 |------------------|----------------------------|
 |-7-7-7-7-7-7--7-7-|----------------------------|
 |-7-7-7-7-7-7--7-7-|---6---6--6--6--6---6-6-6---|
 |-7-7-9-7-7-7--9-7-|---7---7--7--7--7---7-7-7---|
 |-5-5-5-5-5-5--5-5-|---7---7--9--9-10--10-9-7---|
 |------------------|---5---5--5--5--5---5-5-5---|

[E] [E] [E] [E] [B] [E] [E] [E] [E] [B]  
 
 |-----17--17-17-17--------|-----17-17-17-17--------|
 |-/17---------------------|-/17--------------------|
 |-/17---------------------|-/17--------------------|
 |-------------------------|------------------------|
 |-------------------------|------------------------|
 |-------------------------|------------------------|

|
| E Q. H W
 
 |-------------------------|------------------------|
 |-------------------------|------------------------|
 |------2------------------|------------------------|
 |-------------------------|------------------------|
 |---4---------------------|------------------------|
 |-------------------------|------------------------|

|
| E E E E E E E E E E E E E E E E
 
 |-------------------------|------------------------|
 |-------------------------|------------------------|
 |---6--6---6--6--6--6-6-6-|---6--6--6--6--6--6-6-6-|
 |---7--7---7--7--7--7-7-7-|---7--7--7--7--7--7-7-7-|
 |---7--7---9--9-10-10-9-7-|---7--7--9--9-10-10-9-7-|
 |---5--5---5--5--5--5-5-5-|---5--5--5--5--5--5-5-5-|

Harmonica Solo
[D]  
[E] [E] [E] [E] [B] [E] [E] [E] [E] [E] [E] [E] [E]  
 
 |-----17-17-17-17--------||------------------|
 |-/17--------------------||------------------|
 |-/17--------------------||------------------|
 |------------------------||-7---9---7---9----|
 |------------------------||-5-5-5-5-5-5-5-5--|
 |------------------------||------------------|

|
| W E E E E E E E E
 
 |------------------------||------------------|
 |------------------------||-----3------------|
 |------------------------||-----------2------|
 |------------------------||-3h4---3h4---3h4--|
 |------------------------||------------------|
 |------------------------||------------------|

|
| E E E E E E E E E E E E E E E E
 
 |------------------------||------------------|
 |------------------------||-7-7-7-7-7-7-7-7--|
 |---6--6--6--6--6--6-6-6-||-7-7-7-7-7-7-7-7--|
 |---7--7--7--7--7--7-7-7-||-7-7-9-7-7-7-9-7--|
 |---7--7--9--9-10-10-9-7-||-5-5-5-5-5-5-5-5--|
 |---5--5--5--5--5--5-5-5-||------------------|

[A]  
[E] [E] [E] [E] [E] [E] [E] [E] [E] [E] [E] [E] [B]  
 
 |-----------------|-----17-17-17-17--------|
 |-----------------|-/17--------------------|
 |-----------------|-/17--------------------|
 |-7---9---7---9---|------------------------|
 |-5-5-5-5-5-5-5-5-|------------------------|
 |-----------------|------------------------|

|
| E E E E E E E E W
 
 |-----------------|------------------------|
 |-3-----------3---|------------------------|
 |-------2---------|------------------------|
 |---3h4---3h4---3h|===4--------------------|
 |-----------------|------------------------|
 |-----------------|------------------------|

|
| E E E E E E E E E E E E E E E E
 
 |-----------------|------------------------|
 |-7-7-7-7-7-7-7-7-|------------------------|
 |-7-7-7-7-7-7-7-7-|---6--6--6--6--6--6-6-6-|
 |-7-7-9-7-7-7-9-7-|---7--7--7--7--7--7-7-7-|
 |-5-5-5-5-5-5-5-5-|---7--7--9--9-10-10-9-7-|
 |-----------------|---5--5--5--5--5--5-5-5-|

[D]  
[E] [E] [E] [E] [B] [E] [E] [E] [E] [E] [E] [E] [E]  
 
 |-----17-17-17-17--------|------------------|
 |-/17--------------------|------------------|
 |-/17--------------------|------------------|
 |------------------------|-7---9---7---9----|
 |------------------------|-5-5-5-5-5-5-5-5--|
 |------------------------|------------------|

|
| W E E E E E E E E
 
 |------------------------|------------------|
 |------------------------|-----3------------|
 |------------------------|-----------2------|
 |------------------------|-3h4---3h4---3h4--|
 |------------------------|------------------|
 |------------------------|------------------|

|
| E E E E E E E E E E E E E E E E
 
 |------------------------|------------------|
 |------------------------|-7-7-7-7-7-7-7-7--|
 |---6--6--6--6--6--6-6-6-|-7-7-7-7-7-7-7-7--|
 |---7--7--7--7--7--7-7-7-|-7-7-9-7-7-7-9-7--|
 |---7--7--9--9-10-10-9-7-|-5-5-5-5-5-5-5-5--|
 |---5--5--5--5--5--5-5-5-|------------------|

[A]  
[E] [E] [E] [E] [E] [E] [E] [E] [E] [E] [E] [E] [B]  
 
 |-----------------|-----17-17-17-17--------|
 |-----------------|-/17--------------------|
 |-----------------|-/17--------------------|
 |-7---9---7---9---|------------------------|
 |-5-5-5-5-5-5-5-5-|------------------------|
 |-----------------|------------------------|

|
| E E E E E E E E W
 
 |-----------------|------------------------|
 |-3-----------3---|------------------------|
 |-------2---------|------------------------|
 |---3h4---3h4---3h|===4--------------------|
 |-----------------|------------------------|
 |-----------------|------------------------|

|
| E E E E E E E E E E E E E E E E
 
 |-----------------|------------------------|
 |-7-7-7-7-7-7-7-7-|------------------------|
 |-7-7-7-7-7-7-7-7-|---6--6--6--6--6--6-6-6-|
 |-7-7-9-7-7-7-9-7-|---7--7--7--7--7--7-7-7-|
 |-5-5-5-5-5-5-5-5-|---7--7--9--9-10-10-9-7-|
 |-----------------|---5--5--5--5--5--5-5-5-|

[E]  
[E] [E] [E] [E] [B] [E] [E] [E] [E] [E] [E] [E] [E]  
 
 |-----17-17-17-17--------|--------------------|
 |-/17--------------------|--------------------|
 |-/17--------------------|--------------------|
 |------------------------|-9---11---9---11----|
 |------------------------|-7-7--7-7-7-7--7-7--|
 |------------------------|--------------------|

|
| W E E E E E E E E
 
 |------------------------|------0-----0-------|
 |------------------------|--------------------|
 |------------------------|-0h1----0h1---------|
 |------------------------|--------------------|
 |------------------------|--------------------|
 |------------------------|---------------0-1--|

|
| E E E E E E E E E E E E E E E E
 
 |------------------------|--------------------|
 |------------------------|-9-9--9-9-9-9--9-9--|
 |---6--6--6--6--6--6-6-6-|-9-9--9-9-9-9--9-9--|
 |---7--7--7--7--7--7-7-7-|-9-9-11-9-9-9-11-9--|
 |---7--7--9--9-10-10-9-7-|-7-7--7-7-7-7--7-7--|
 |---5--5--5--5--5--5-5-5-|--------------------|

[E] [E] [E] [E] [E] [E] [E] [E] [E] [E] [E] [E] [B]  
 
 |-----------------|-----17-17-17-17--------|
 |-----------------|-/17--------------------|
 |-----------------|-/17--------------------|
 |-7---9---7---9---|------------------------|
 |-5-5-5-5-5-5-5-5-|------------------------|
 |-----------------|------------------------|

|
| E Q E Q Q W
 
 |-----------------|------------------------|
 |---3-------------|------------------------|
 |-------2---------|------------------------|
 |---------4-------|------------------------|
 |-----------------|------------------------|
 |-2---------------|------------------------|

|
| E E E E E E E E E E E E E E E E
 
 |-----------------|------------------------|
 |-7-7-7-7-7-7-7-7-|------------------------|
 |-7-7-7-7-7-7-7-7-|---6--6--6--6--6--6-6-6-|
 |-7-7-9-7-7-7-9-7-|---7--7--7--7--7--7-7-7-|
 |-5-5-5-5-5-5-5-5-|---7--7--9--9-10-10-9-7-|
 |-----------------|---5--5--5--5--5--5-5-5-|

Outro
D.S. al Coda &
[E] [E] [E] [E] [B] [E] [E] [E] [E] [B]  
 
 |-----17-17-17-17---------||-----17-17-17-17--------|
 |-/17---------------------||-/17--------------------|
 |-/17---------------------||-/17--------------------|
 |-------------------------||------------------------|
 |-------------------------||------------------------|
 |-------------------------||------------------------|

|
| W W
 
 |-------------------------||------------------------|
 |-------------------------||------------------------|
 |-------------------------||------------------------|
 |-------------------------||------------------------|
 |-------------------------||------------------------|
 |-------------------------||------------------------|

|
| E E E E E E E E E E E E E E E E
 
 |-------------------------||------------------------|
 |-------------------------||------------------------|
 |---6--6--6--6--6--6-6-6--||---6--6--6--6--6--6-6-6-|
 |---7--7--7--7--7--7-7-7--||---7--7--7--7--7--7-7-7-|
 |---7--7--9--9-10-10-9-7--||---7--7--9--9-10-10-9-7-|
 |---5--5--5--5--5--5-5-5--||---5--5--5--5--5--5-5-5-|

[E] [E] [E] [E] [B] [E] [E] [E] [E] [B]  
 
 |-----17-17-17-17--------|-----17-17-17-17--------|
 |-/17--------------------|-/17--------------------|
 |-/17--------------------|-/17--------------------|
 |------------------------|------------------------|
 |------------------------|------------------------|
 |------------------------|------------------------|

|
| E E E E E Q E E E E E E Q E
 
 |------------------------|------------------------|
 |------------------------|------------------------|
 |---------2------------2-|---------2------------2-|
 |------------------2-----|------------------2-----|
 |---3h=4-----3h=4--------|---3h=4-----3h=4--------|
 |------------------------|------------------------|

|
| E E E E E E E E E E E E E E E E
 
 |------------------------|------------------------|
 |------------------------|------------------------|
 |---6--6--6--6--6--6-6-6-|---6--6--6--6--6--6-6-6-|
 |---7--7--7--7--7--7-7-7-|---7--7--7--7--7--7-7-7-|
 |---7--7--9--9-10-10-9-7-|---7--7--9--9-10-10-9-7-|
 |---5--5--5--5--5--5-5-5-|---5--5--5--5--5--5-5-5-|

[E] [E] [E] [E] [B] [E] [E] [E] [E] [B]  
 
 |-----17-17-17-17--------|-----17-17-17-17-----------|
 |-/17--------------------|-/17-----------------------|
 |-/17--------------------|-/17-----------------------|
 |------------------------|---------------------------|
 |------------------------|---------------------------|
 |------------------------|---------------------------|

|
| E E E E E Q E E E E E +E Q.
 
 |------------------------|---------------------------|
 |------------------------|---------------------------|
 |---------2------------2-|---------2---------2-------|
 |------------------2-----|---------------------------|
 |---3h=4-----3h=4--------|---3h=4-----3-(3)----------|
 |------------------------|---------------------------|

|
| E E E E E E E E E E E E E E E E
 
 |------------------------|---------------------------|
 |------------------------|---------------------------|
 |---6--6--6--6--6--6-6-6-|---6--6--6--6--6---6--6-6--|
 |---7--7--7--7--7--7-7-7-|---7--7--7--7--7---7--7-7--|
 |---7--7--9--9-10-10-9-7-|---7--7--9--9-10--10--9-7--|
 |---5--5--5--5--5--5-5-5-|---5--5--5--5--5---5--5-5--|

[E] [E] [E] [E] [B] [E] [E] [E] [E] [B]  
 
 |-----17-17-17-17----------|-----17-17-17-17----------|
 |-/17----------------------|-/17----------------------|
 |-/17----------------------|-/17----------------------|
 |--------------------------|--------------------------|
 |--------------------------|--------------------------|
 |--------------------------|--------------------------|

|
| E E E E +E Q. E E E E +E Q.
 
 |--------------------------|--------------------------|
 |--------------------------|--------------------------|
 |---------2---------2------|---------2---------2------|
 |--------------------------|--------------------------|
 |---3h=4-----3-(3)---------|---3h=4-----3-(3)---------|
 |--------------------------|--------------------------|

|
| E E E E E E E E E E E E E E E E
 
 |--------------------------|--------------------------|
 |--------------------------|--------------------------|
 |---6--6--6--6--6---6--6-6-|---6--6--6--6--6---6--6-6-|
 |---7--7--7--7--7---7--7-7-|---7--7--7--7--7---7--7-7-|
 |---7--7--9--9-10--10--9-7-|---7--7--9--9-10--10--9-7-|
 |---5--5--5--5--5---5--5-5-|---5--5--5--5--5---5--5-5-|

[E] [E] [E] [E] [B] [E] [E] [E] [E] [B]  
 
 |-----17-17-17-17----------|-----17-17-17-17-----------*|
 |-/17----------------------|-/17-----------------------*|
 |-/17----------------------|-/17-----------------------*|
 |--------------------------|---------------------------*|
 |--------------------------|---------------------------*|
 |--------------------------|---------------------------*|

|
| E E E E +E Q. E E E E +E Q.
 
 |--------------------------|---------------------------*|
 |--------------------------|---------------------------*|
 |---------2---------2------|---------2---------2-------*|
 |--------------------------|---------------------------*|
 |---3h=4-----3-(3)---------|---3h=4-----3-(3)----------*|
 |--------------------------|---------------------------*|

|
| E E E E E E E E E E E E E E E E
 
 |--------------------------|---------------------------*|
 |--------------------------|---------------------------*|
 |---6--6--6--6--6---6--6-6-|---6--6--6--6--6---6--6-6--*|
 |---7--7--7--7--7---7--7-7-|---7--7--7--7--7---7--7-7--*|
 |---7--7--9--9-10--10--9-7-|---7--7--9--9-10--10--9-7--*|
 |---5--5--5--5--5---5--5-5-|---5--5--5--5--5---5--5-5--*| 


Important: The song above is NOT stored on the Chordie server. The original song is hosted at www.azchords.com. Chordie works as a search engine and provides on-the-fly formatting. Chordie does not index songs against artists'/composers' will. To remove this song please click here.

Text color:
Chord color:
Chord grids: 
Font size:    
Page size: 

A B D E
Rate #1 of 1 versions

Login - add to songbook

SHARE PAGE  



You need to log in to post comments