Guitar Tabs, Chords and Lyrics
Server problems seems to be fixed. Chordie has been experiencing problems with songs disappearing. These issues now seems to be fixed, but still verifying the fix. If you find anything strange, please email admin@chordie.com.


Good Times, Bad Times  The Rolling Stones

Gtr I (C F Bb Eb G C) - 'Keith Richards - Acoustic 12-string Guitar (Down 2 Steps)'
Intro
Q=106
12/8[E] [B] [Eb] [E] [EbB] [A]
Gtr I (Ac. 12-string Gtr. - Down 2 Steps / C F Bb Eb G C)
W E E E E Q. E E E Q E Q. E E E E E E E E E E E E
 
 |------------------|----------------------|-0---0-/4-2-0-----0-----0--|
 |------------9-7-8-|-9------9-8-7---------|-0-2----------0-2---0-2----|
 |------------9-8-8-|-9------9-8-8---------|--------------2------------|
 |------------9-9-8-|-9------9-8-9---------|---------------------------|
 |------------------|----------------------|---------------------------|
 |------------------|------0--------7-7----|---------------------------|

1st Verse
[E]Q. E E E E E E E E E Q. E E E [B7]Q. E E E [E]Q. E E E [E7]Q. E E E
 
 |----------0-/4-2-0-----0-|-----------------------||----------------------0---|
 |------0-2----------0-2---|-----------------------||----------------------0---|
 |-------------------------|-----------------------||--------------------------|
 |-------------------------|------2----------1-1-1-||------/2-/2-/2-0----2---0-|
 |-------------------------|--------1-2-2----2-2-2-||--------------------------|
 |-0-----------------------|-0---------------------||-0------------------------|

[B]Q E E E E [B7]Q E E E E
 
 |--------------------------|
 |----0---------------------|
 |------/4-/4-/4-2------1---|
 |------------------1-----2-|
 |-2------------------2-----|
 |--------------------------|

[E7]Q E E E E E. S E E E E [A7]E. S E E E E E. S E E E E
 
 |----0---------------------|----0---0-3-3--------------|
 |---------3-3--------------|--------------3--1---------|
 |------/4-----2--0---0-----|------0------------2-------|
 |------------------2---2-0-|---------------------2-0-1-|
 |--------------------------|-0-------------------------|
 |-0------------------------|---------------------------|

[E]Q. E E E [E7]Q. E E E [B]Q. E E E [B7]Q E E S S E [E]Q. E E E S S [A]E E E E E
 
 |------------------------|-------------------------|--------------------------|
 |------------------------|--------0-0--------------|--------------------------|
 |-----------0------------|------2-----2------------|------------0h1-2---0-2-0-|
 |-2-------0---2----2-----|-------------------------|--------0-2-----2-2-0-2-0-|
 |------/2------------0-1-|-2-------------2-2-0h2-2-|------2-------------------|
 |-0----------------------|-------------------------|-0------------------------|

2nd Verse
[E]Q. +E E E [B]Q. Q E [E]Q. S S E S S S S +Q E E E
 
 |----------------------0-||-------------------------------|
 |------------------------||-------------------------------|
 |------------------------||-------------------------------|
 |------------------------||------------0h2-0h2-(2)----0---|
 |----------0-1-2----2----||------0h2-2--------------2---2-|
 |-0----(0)---------------||-0-----------------------------|

[B]S S +Q E E E [B7]Q E E E E
 
 |----------------5--5-------|
 |----------------4----4-----|
 |------------4-4------4-0-1-|
 |----------4----------------|
 |-0h2-(2)-------------------|
 |---------------------------|

[E]Q. E E E [E7]Q. E E E [A]Q E E E E [A7]Q. E E E [E7]Q. E E E E Q E E E
 
 |-----------------------|-----------------------|--------------0--0-----|
 |-----------------------|-----------------------|-----------------0-----|
 |-----------------------|------2---2-0----0-----|------0----------0-----|
 |------------0--------0-|----2---2---2----2-0-2-|--------2---0----------|
 |----------2------1S2---|-0---------------------|----------2--------0-1-|
 |-0----0-4--------------|-----------------------|-0---------------------|

[B7]Q. E E E Q. E E E [E]S S +Q E E E [A] E E E E E E
 
 |------------------------|-----------------------------|
 |----------0-0-----------|-----------------------------|
 |--------2---2-----------|-----------------------------|
 |------------------------|-0h2-(2)------2-/6-4-2-----2-|
 |-2----2----------2------|----------2-4----------2-4---|
 |-------------------/4-0-|-0---------------------------|

[E]Q. E E E [B7]E. S E Q E
 
 |-------------------------||
 |---------------0---0--0--||
 |---------------2---2--2--||
 |--------0-0-1------------||
 |-2------0-1-2----2-------||
 |-------------------------||

Harmonica Solo
[E]Q E E. S E [E7]E. S E E E E
 
 |-0--0-0--0-0-0--0-0-0-0-0-|
 |-0--0-0--0-0-3--3-3-3-3-3-|
 |-1--1-1--1-1-1--1-1-1-1-1-|
 |-2--2-2--2-2-2--2-2-2-2-2-|
 |-2--2-2--2-2-2--2-2-2-2-2-|
 |-0--0-0--0-0-0--0-0-0-0-0-|

[B7]E S S E E S S E E S S E E S S E [E]Q [E7]E E E E E E E [E]E E E
 
 |-2-2-2-2-2-2-2-2-2-2-2-2-2-2-2-2-|-0--0-0-0-0-0-0-0-0-0-0-|
 |-0-0-0-0-0-0-0-0-0-0-0-0-0-0-0-0-|-0--3-3-3-3-3-3-3-0-0-0-|
 |-2-2-2-2-2-2-2-2-2-2-2-2-2-2-2-2-|-1--1-1-1-1-1-1-1-1-1-1-|
 |-1-1-1-1-1-1-1-1-1-1-1-1-1-1-1-1-|-2--2-2-2-2-2-2-2-2-2-2-|
 |-2-2-2-2-2-2-2-2-2-2-2-2-2-2-2-2-|-2--2-2-2-2-2-2-2-2-2-2-|
 |---------------------------------|-0--0-0-0-0-0-0-0-0-0-0-|

[A]E E E [A7]E E E E S S E E E E [E]Q E E E E E E E E E E
 
 |-0-0-0-3-3-3-3-3-3-3-3-3-3-|-0--0-------------------|
 |-2-2-2-2-2-2-2-2-2-2-2-2-2-|-0--0-------------------|
 |-2-2-2-2-2-2-2-2-2-2-2-2-2-|-1--1-------------------|
 |-2-2-2-2-2-2-2-2-2-2-2-2-2-|-2--2-2-0-----0-2---0-2-|
 |-0-0-0-0-0-0-0-0-0-0-0-0-0-|-2--2-----0-2-----2-----|
 |---------------------------|-0--0-------------------|

[B7]E S S E E S S E a E E E E E E
 
 |---2-2-2-2-2-2-2-----------------|
 |---0-0-0-0-0-0-0-----------------|
 |---2-2-2-2-2-2-2-----------------|
 |---1-1-1-1-1-1-1-----------------|
 |-2-2-2-2-2-2-2-2-2p0---0-2-/2-/2-|
 |---------------------2-----------|

[E]Q. E E E [A]E E E E E E [E]Q. E E E [B7]Q. E E E
 
 |-------------------------|---------------------------||
 |-------------------------|---------------------------||
 |-------------------------|---------------------------||
 |-------------------------|----------------1----------||
 |------------0-0-0-1-2----|----------/2-/2-2----2-2-2-||
 |-0----0-0-3-----------/4-|-0----(0)------------------||

3rd Verse
[E7]Q. E E E E. S E E E E
 
 |----------10-10---------0-----|
 |------/12-------10--8-----3---|
 |----------------------9-------|
 |------------------------------|
 |----------------------------0-|
 |-0----------------------------|

[B7]Q. E E E E E E E E E
 
 |---------7-7----7-7----7-7-|
 |---------------------------|
 |------/8-----/8-----/8-----|
 |---------------------------|
 |-2-------------------------|
 |---------------------------|

[E]Q. E E E [E7]Q E E E E [A]Q E E E E [A7] Q E E E E
 
 |--------------------------|------------------------|
 |--------------------------|--------2-2-/2----------|
 |-4------------------------|----------------2-------|
 |--------/2-/2-0----0-2-/2-|------------------------|
 |-----------------2--------|-0----0-----------0---0-|
 |--------------------------|----0---------------3---|

[E7]Q. E. S E S E S E E E E
 
 |----------------------------|
 |----------3-3---------------|
 |------/4------4p2-0---0-----|
 |--------------------2---0---|
 |--------------------------0-|
 |-0--------------------------|

[B7]Q. E E E E E E E E E [E]Q E E E E [A]E E E E E E
 
 |--------------------------|--------------------------|
 |------------0-------------|--------------------------|
 |--------------/4-/4-2-0---|--------------------------|
 |--------0-2-------------2-|--------------------------|
 |-2----2-------------------|-----------0-0-0-0-0------|
 |--------------------------|-0--0-0-/3-----------3-0--|

Outro
[E]Q E E E E [B7]Q E E S S E [E]Q. E E E Q E E E E
 
 |-------------------------||-------------------------|
 |---------------0---------||-------------------------|
 |-----------------2-2-2-2-||---------------/4-/4-----|
 |-------------------1-1-1-||-------------------------|
 |--------0-1-2------------||------1-0-2----------0-1-|
 |-0--0-0------------------||-0----------0------------|

[B7]Q E E E E Q E E E E
 
 |------------------2---2----|
 |---------------------------|
 |------/4-/4-/4-2----2---2--|
 |---------------------------|
 |-2--2----------------------|
 |---------------------------|

[E]E E E E E E [E7]E S S E E E E [A]Q. E E E [A7]E E E E E E
 
 |---------------------------|---------------------------|
 |---------------------------|---------------0-3-0-------|
 |-------0-1-0---------------|------/2-/2-/2-0-----------|
 |-------------0-----0-2-----|---------------------------|
 |---------------0h2-----0-2-|-0-------------------0-----|
 |-0-0-0---------------------|-----------------------0-3-|

[E]Q E E S S S S S E. E E E E
 
 |------------------------------|
 |------------------------------|
 |------0-----------------------|
 |--------0h2-0h2-0h2--2-0------|
 |-------------------------2-0--|
 |-0--0-------------------------|

[B7]Q. E E E Q E E E E [E]Q. E E E [A]S S E E E E E [E]Q. E E E [B7]Q E Q E
 
 |-----------------------|--------------------------|-----------------------*|
 |--------0-0------------|--------------------------|------------0--0----0--*|
 |------2-----2----------|------------0h1-----------|------------2--2----2--*|
 |-----------------0-1-2-|----------2-----4-2-----2-|-----------------------*|
 |-2-------------2-------|------2-4-----------2-4---|-2----0-1-2------2-----*|
 |-----------------------|-0------------------------|-----------------------*| 


Important: The song above is NOT stored on the Chordie server. The original song is hosted at www.azchords.com. Chordie works as a search engine and provides on-the-fly formatting. Chordie does not index songs against artists'/composers' will. To remove this song please click here.

Text color:
Chord color:
Chord grids: 
Font size:    
Page size: 

A A7 B B7 E E7 Eb
Rate #1 of 3 versions

Login - add to songbook

SHARE PAGE  




You need to log in to post comments