Guitar Tabs, Chords and Lyrics
Server problems seems to be fixed. Chordie has been experiencing problems with songs disappearing. These issues now seems to be fixed, but still verifying the fix. If you find anything strange, please email admin@chordie.com.


Gotta Get Away  The Rolling Stones

x 0 2 2 2 0 [A]0 2 2 1 0 0 [E]0 2 0 1 0 0 [E7] x x 0 2 3 2[D]
[F#m]  
[2] [4] [4] [2] [2] [2]  
Gtr I (Eb Ab Db Gb Bb Eb) - 'Keith Richards - Acoustic Guitar (1/2step down)'
Gtr II (Eb Ab Db Gb Bb Eb) - 'Keith Richards - Electric Guitar (1/2 step down)'
Gtr III (Eb Ab Db Gb Bb Eb) - 'Brian Jones - Electric Guitar (1/2 step down)'
Intro
Q=110
[A] [E7] [A] [E7] [A] 
[4/4] Gtr I (Ac. Gtr. / 1/2 step down)
Q E. S E E E E Q E. S E E E E
| | | | | | | | | | | | | |
[/] [/] [/] [/] [/] [/] [/] [/] [/] [/] [/] [/] [/] [/] 
Gtr II (El. Gtr. / 1/2 step down)
Q Q E E Q Q Q E E E E
 
 |--------------------|-------------------|
 |--------------------|-------------------|
 |--------------------|-------------------|
 |--------------2-----|-------------------|
 |-0--0------/4-------|--0---0----4-2---2-|
 |----------------0---|---------------0---|

|
| Gtr III (El. Gtr. / 1/2 step down)
| Q e E E Q E +Q Q E Q E
 
 |----5-------7-9---5-|-(5)-------7-9---5-|
 |----5-------------5-|-(5)-------------5-|
 |----6-------7-9---6-|-(6)-------7-9---6-|
 |--------------------|-------------------|
 |--------------------|-------------------|
 |--------------------|-------------------|

Q E. S [E7] E E E [A]E Q E. S [E7]E E E E
| | | | | | | | | | | | | |
[/] [/] [/] [/] [/] [/] [/] [/] [/] [/] [/] [/] [/] [/] 
Q Q E E E E Q E E E E E E
 
 |------------------|-------------------||
 |------------------|-------------------||
 |------------------|-------------------||
 |------------2-----|-------------------||
 |-0--0----/4-----0-|-0--0--0---4-2---0-||
 |--------------0---|---------------0---||

|
| Q Q E Q E Q Q E Q E
 
 |-5--------7-9---5-|-5---------7-9---5-||
 |-5--------------5-|-5---------------5-||
 |-6--------7-9---6-|-6---------7-9---6-||
 |------------------|-------------------||
 |------------------|-------------------||
 |------------------|-------------------||

1st - 3rd Verses
[A]Q E. S [E7] E E E [A]E Q E. S [E7]E E E [A]E Q E. S [E7] E E E [A]E
| | | | | | | | | | | | | | | | | | | | |
[/] [/] [/] [/] [/] [/] [/] [/] [/] [/] [/] [/] [/] [/] [/] [/] [/] [/] [/] [/] [/] 
Q Q E E E E Q Q E Q E Q Q E E E E
 
 ||----------------------|--------------------|----------------------|
 ||o---------------------|--------------------|----------------------|
 ||----------------------|--------------------|----------------------|
 ||---------------2------|--------------------|--------------2-------|
 ||o-0--0------/4------0-|-0--0------4-2----0-|-0--0------/4------0--|
 ||------------------0---|--------------------|-----------------0----|

|
| Q E E Q E E Q E E Q E E Q E E Q E E
 
 ||-----5-----------10---|----5----------10---|----5-----------10----|
 ||o----5------------9---|----5-----------9---|----5------------9----|
 ||-----6------------9---|----6-----------9---|----6------------9----|
 ||-----7------------9---|----7-----------9---|----7------------9----|
 ||o---------------------|--------------------|----------------------|
 ||----------------------|--------------------|----------------------|

Q E. S [E7]E E E [A]E Q E. S [E7] E E E [A]E Q E. S [E7]E E E [A]E
| | | | | | | | | | | | | | | | | | | | |
[/] [/] [/] [/] [/] [/] [/] [/] [/] [/] [/] [/] [/] [/] [/] [/] [/] [/] [/] [/] [/] 
Q E E E Q E Q Q E E E E +Q Q E E E E
 
 |--------------------|---------------------|----------------------|
 |--------------------|---------------------|----------------------|
 |--------------------|---------------------|----------------------|
 |--------------------|--------------2------|----------------------|
 |-0--0--0---4-2----0-|-0--0------/4------0-|-(0)--0------4-2----0-|
 |--------------------|-----------------0---|------------------0---|

|
| Q E E Q E E Q E E Q E E Q E E Q E E
 
 |----5----------10---|----5-----------10---|------5----------10---|
 |----5-----------9---|----5------------9---|------5-----------9---|
 |----6-----------9---|----6------------9---|------6-----------9---|
 |----7-----------9---|----7------------9---|------7-----------9---|
 |--------------------|---------------------|----------------------|
 |--------------------|---------------------|----------------------|

Q E. S [E7]E E E [A]E Q E. S [E7]E E E E [D]Q E. S [E7] E E E E
| | | | | | | | | | | | | | | | | | | | |
[/] [/] [/] [/] [/] [/] [/] [/] [/] [/] [/] [/] [/] [/] [/] [/] [/] [/] [/] [/] [/] 
Q Q E E E E Q Q Q E E Q E E Q E E
 
 |--------------------|--------------------|----------------------|
 |--------------------|--------------------|----------------------|
 |--------------------|--------------------|----------------------|
 |-------------2------|--------------------|-0--2--4----2----2--0-|
 |-0--0------4------0-|-0--0------4----2-0-|----------------------|
 |----------------0---|--------------------|----------------------|

|
| Q E E Q E E Q E E Q E E Q E E Q E E
 
 |----5----------10---|----5----------10---|-2--2--2---10---10-10-|
 |----5-----------9---|----5-----------9---|-3--3--3----9----9--9-|
 |----6-----------9---|----6-----------9---|-2--2--2----9----9--9-|
 |----7-----------9---|----7-----------9---|-0--0--0----9----9--9-|
 |--------------------|--------------------|----------------------|
 |--------------------|--------------------|----------------------|

E E E E E E E E [A]Q E E E E E E [F#m] E E E E E E E E
| | | | | | | | | | | | | | | | | | | | | | |
[/] [/] [/] [/] [/] [/] [/] [/] [/] [/] [/] [/] [/] [/] [/] [/] [/] [/] [/] [/] [/] [/] [/] 
E E E E E E E E Q. E E E E E Q Q E E E E
 
 |-------------------------|-----------------|-------------------|
 |-------------------------|-----------------|-------------------|
 |-------------------------|-----------------|-------------2-----|
 |--2--0--2--0-----2--2--0-|-----------2-----|-------4---4-------|
 |-------------------------|-0-----0-4---0---|-----------------0-|
 |--------------4----------|---------------4-|--2------------2---|

|
| E E E E E E E E Q E E E Q E +E E E E E E E E
 
 |-10-10-10-10-10-10-10-10-|-----5---5-5---2-|-(2)-2-2-2-2-2-2-2-|
 |--9--9--9--9--9--9--9--9-|-----5---5-5---2-|-(2)-2-2-2-2-2-2-2-|
 |--9--9--9--9--9--9--9--9-|-----6---6-6---2-|-(2)-2-2-2-2-2-2-2-|
 |--9--9--9--9--9--9--9--9-|-----7---7-7---4-|-(4)-4-4-4-4-4-4-4-|
 |-------------------------|-----------------|-------------------|
 |-------------------------|---------------2-|-(2)-2-2-2-2-2-2-2-|

[D]Q E E [E7] E E E E E E E E E E E E
| | | | | | | | | | | | | | |
[/] [/] [/] [/] [/] [/] [/] [/] [/] [/] [/] [/] [/] [/] [/] 
Q E E Q E E E E Q Q E E
 
 |--------------------|------------------------||
 |--------------------|------------------------||
 |--------------------|------------------------||
 |-0--2-4--------2--0-|--2--0--2-----0-----2-4-||
 |--------------------|------------------------||
 |---------0----------|------------------------||

|
| Q E E E E E E E E E E E E Q
 
 |-2--2-2-10-10-10-10-|-10-10-10-10-10-10-10---||
 |-3--3-3--9--9--9--9-|--9--9--9--9--9--9--9---||
 |-2--2-2--9--9--9--9-|--9--9--9--9--9--9--9---||
 |-0--0-0--9--9--9--9-|--9--9--9--9--9--9--9---||
 |--------------------|------------------------||
 |--------------------|------------------------||

Chorus
[A]Q E. S [E7]E E E [A]E Q E. S [E7]E E E [A]E
| | | | | | | | | | | | | |
[/] [/] [/] [/] [/] [/] [/] [/] [/] [/] [/] [/] [/] [/] 
Q Q E Q E Q Q E Q E
 
 |-------------------|-------------------|
 |-------------------|-------------------|
 |-------------------|-------------------|
 |-----------0-------|-------------------|
 |-0--0--------4---2-|--0---0----4-2---0-|
 |-------------------|-------------------|

|
| Q E E E Q E +Q Q E Q E
 
 |----5------7-9---5-|-(5)-------9-7---5-|
 |----5------------5-|-(5)-------------5-|
 |----6------7-9---6-|-(6)-------9-7---6-|
 |-------------------|-------------------|
 |-------------------|-------------------|
 |-------------------|-------------------|

1.,2. 3.
Q E. S [E7] E E E [A]E Q E. S [E7]E E E [A]E [A]W +W
| | | | | | | | | | | | | | | |
[/] [/] [/] [/] [/] [/] [/] [/] [/] [/] [/] [/] [/] [/] [/] [/] 
Q Q E E E E Q E E E E E E 3x W +W
 
 |--------------------|--------------------||----------|--------*|
 |--------------------|-------------------o||----------|--------*|
 |--------------------|--------------------||----------|--------*|
 |--------------2-----|--------------------||----------|--------*|
 |--0---0----/4-----0-|-0--0--0---4-2---0-o||-0--------|-(0)----*|
 |----------------0---|---------------0----||----------|--------*|

|
| +Q Q E Q E Q Q E E Q 3x W +W
 
 |-(5)--------9-7---5-|-5---------9-7------||-5--------|-(5)----*|
 |-(5)--------------5-|-5-------------9---o||-5--------|-(5)----*|
 |-(6)--------9-7---6-|-6---------9---9----||-6--------|-(6)----*|
 |--------------------|--------------------||----------|--------*|
 |--------------------|-------------------o||----------|--------*|
 |--------------------|--------------------||----------|--------*| 


Important: The song above is NOT stored on the Chordie server. The original song is hosted at www.azchords.com. Chordie works as a search engine and provides on-the-fly formatting. Chordie does not index songs against artists'/composers' will. To remove this song please click here.

Text color:
Chord color:
Chord grids: 
Font size:    
Page size: 

A D E E7 F#m
Rate #1 of 4 versions

Login - add to songbook

SHARE PAGE  



You need to log in to post comments