Guitar Tabs, Chords and Lyrics
Server problems seems to be fixed. Chordie has been experiencing problems with songs disappearing. These issues now seems to be fixed, but still verifying the fix. If you find anything strange, please email admin@chordie.com.


Take It or Leave It  The Rolling Stones

Intro 1st - 3rd Verses
Q=106
$
[F] [F] 
[4/4] Gtr I (Ac. 12-string Gtr.)
Q S S S S Q S S S S Q S S S S Q S S S S E E E E E E E E
 
 |-1--1-1-1-1-1--1-1-1-1-|-1--1-1-1-1-1--1-1-1-1-||--1-1-1-1-1-1-1-1-|
 |-1--1-1-1-1-1--1-1-1-1-|-1--1-1-1-1-1--1-1-1-1-||o-1-1-1-1-1-1-1-1-|
 |-2--2-2-2-2-2--2-2-2-2-|-2--2-2-2-2-2--2-2-2-2-||--2-2-2-2-2-2-2-2-|
 |-3--3-3-3-3-3--3-3-3-3-|-3--3-3-3-3-3--3-3-3-3-||--3-3-3-3-3-3-3-3-|
 |-3--3-3-3-3-3--3-3-3-3-|-3--3-3-3-3-3--3-3-3-3-||o-3-3-3-3-3-3-3-3-|
 |-1--1-1-1-1-1--1-1-1-1-|-1--1-1-1-1-1--1-1-1-1-||--1-1-1-1-1-1-1-1-|

|
| Gtr II (Ac. 12-string Gtr.)
| W W E E E E E E E E
 
 |-----------------------|-----------------------||--5---5---5---5---|
 |-----------------------|-----------------------||o-----------------|
 |-----------------------|-----------------------||----5---5---5---5-|
 |-----------------------|-----------------------||------------------|
 |-----------------------|-----------------------||o-----------------|
 |-----------------------|-----------------------||------------------|

[C] [Bbm] [C] [F] 
[E] [E] [E] [E] [E] [E] [E] [E] [E] [E] [E] [E] [E] [E] [E] [E] [E] [E] [E] [E] [E] [E] [E] [E] [E] [E] [E] [E] [E] [E] [E] [E]  
 
 |-0-0-0-0-0-0-0-0-|-1-1-1-1-1-1-1-1-|-0-0-0-0-0-0-0-0-|-1-1-1-1-1-1-1-1-|
 |-1-1-1-1-1-1-1-1-|-2-2-2-2-2-2-2-2-|-1-1-1-1-1-1-1-1-|-1-1-1-1-1-1-1-1-|
 |-0-0-0-0-0-0-0-0-|-3-3-3-3-3-3-3-3-|-0-0-0-0-0-0-0-0-|-2-2-2-2-2-2-2-2-|
 |-2-2-2-2-2-2-2-2-|-3-3-3-3-3-3-3-3-|-2-2-2-2-2-2-2-2-|-3-3-3-3-3-3-3-3-|
 |-3-3-3-3-3-3-3-3-|-1-1-1-1-1-1-1-1-|-3-3-3-3-3-3-3-3-|-3-3-3-3-3-3-3-3-|
 |-----------------|-----------------|-----------------|-1-1-1-1-1-1-1-1-|

|
| E E E E E E E E E E E E E E E E E E E E E E E E E E E E E E E E
 
 |-3---3---3---3---|-1---1---1---1---|-3---3---3---3---|-5---5---5---5---|
 |-----------------|-----------------|-----------------|-----------------|
 |---5---5---5---5-|---3---3---3---3-|---5---5---5---5-|---5---5---5---5-|
 |-----------------|-----------------|-----------------|-----------------|
 |-----------------|-----------------|-----------------|-----------------|
 |-----------------|-----------------|-----------------|-----------------|

Chorus
[C] [Bbm] [C] [Bb] 
[E] [E] [E] [E] [E] [E] [E] [E] [E] [E] [E] [E] [E] [E] [E] [E] [E] [E] [E] [E] [E] [E] [E] [E] [E] [E] [E] [E] [E] [E] [E] [E]  
 
 |-0-0-0-0-0-0-0-0-|-1-1-1-1-1-1-1-1-|-0-0-0-0-0-0-0-0-||-1-1-1-1-1-1-1-1-|
 |-1-1-1-1-1-1-1-1-|-2-2-2-2-2-2-2-2-|-1-1-1-1-1-1-1-1-||-3-3-3-3-3-3-3-3-|
 |-0-0-0-0-0-0-0-0-|-3-3-3-3-3-3-3-3-|-0-0-0-0-0-0-0-0-||-3-3-3-3-3-3-3-3-|
 |-2-2-2-2-2-2-2-2-|-3-3-3-3-3-3-3-3-|-2-2-2-2-2-2-2-2-||-3-3-3-3-3-3-3-3-|
 |-3-3-3-3-3-3-3-3-|-1-1-1-1-1-1-1-1-|-3-3-3-3-3-3-3-3-||-1-1-1-1-1-1-1-1-|
 |-----------------|-----------------|-----------------||-----------------|

|
| E E E E E E E E E E E E E E E E E E E E E E E E Q E E E E E E
 
 |-3---3---3---3---|-1---1---1---1---|-3---3---3---3---||-----3---5---6---|
 |-----------------|-----------------|-----------------||-------3---3---3-|
 |---5---5---5---5-|---3---3---3---3-|---5---5---5---5-||-----------------|
 |-----------------|-----------------|-----------------||-----------------|
 |-----------------|-----------------|-----------------||-----------------|
 |-----------------|-----------------|-----------------||-----------------|

[F] [C] [F] [Bb] 
[E] [E] [E] [E] [E] [E] [E] [E] [E] [E] [E] [E] [E] [E] [E] [E] [E] [E] [E] [E] [E] [E] [E] [E] [E] [E] [E] [E] [E] [E] [E] [E]  
 
 |-1-1-1-1-1-1-1-1-|-0-0-0-0-0-0-0-0-|-1-1-1-1-1-1-1-1-|-1-1-1-1-1-1-1-1-|
 |-1-1-1-1-1-1-1-1-|-1-1-1-1-1-1-1-1-|-1-1-1-1-1-1-1-1-|-3-3-3-3-3-3-3-3-|
 |-2-2-2-2-2-2-2-2-|-0-0-0-0-0-0-0-0-|-2-2-2-2-2-2-2-2-|-3-3-3-3-3-3-3-3-|
 |-3-3-3-3-3-3-3-3-|-2-2-2-2-2-2-2-2-|-3-3-3-3-3-3-3-3-|-3-3-3-3-3-3-3-3-|
 |-3-3-3-3-3-3-3-3-|-3-3-3-3-3-3-3-3-|-3-3-3-3-3-3-3-3-|-1-1-1-1-1-1-1-1-|
 |-1-1-1-1-1-1-1-1-|-----------------|-1-1-1-1-1-1-1-1-|-----------------|

|
| E E E E E E E E E E E E E E E E Q E E E E E E Q E E E E E E
 
 |-------------5---|-----3---3---3---|-------------5---|-----3---5---6---|
 |-----6---8-----6-|-------5---5---5-|-----6---8-------|-------3---3---3-|
 |---5---5---5-----|---5-------------|-------5---5---5-|-----------------|
 |-----------------|-5---------------|-----------------|-----------------|
 |-----------------|-----------------|-----------------|-----------------|
 |-----------------|-----------------|-----------------|-----------------|

To Coda
[F] [C] [Bbm] 
[E] [E] [E] [E] [E] [E] [E] [E] [E] [E] [E] [E] [E] [E] [E] [E] [E] [E] [E] [E] [E] [E] [E] [E]  
 
 |-1-1-1-1-1-1-1-1-|-0-0-0-0-0-0-0-0-|-1-1-1-1-1-1-1-1--|
 |-1-1-1-1-1-1-1-1-|-1-1-1-1-1-1-1-1-|-2-2-2-2-2-2-2-2--|
 |-2-2-2-2-2-2-2-2-|-0-0-0-0-0-0-0-0-|-3-3-3-3-3-3-3-3--|
 |-3-3-3-3-3-3-3-3-|-2-2-2-2-2-2-2-2-|-3-3-3-3-3-3-3-3--|
 |-3-3-3-3-3-3-3-3-|-3-3-3-3-3-3-3-3-|-1-1-1-1-1-1-1-1--|
 |-1-1-1-1-1-1-1-1-|-----------------|------------------|

|
| E E E E E E E E E E E E E E E E E E E E E E E E
 
 |-------------5---|-----3---3---3---|-1---1---1---1----|
 |-----6---8-----6-|-------5---5---5-|------------------|
 |---5---5---5-----|---5-------------|---3---3---3---3--|
 |-----------------|-5---------------|------------------|
 |-----------------|-----------------|------------------|
 |-----------------|-----------------|------------------|

1. 2.
[F] Q Q E E E E [F] Q Q E E E E
 
 |--1--1--1-1-1-1--||--1--1--1-1-1-1---||
 |--1--1--1-1-1-1-o||--1--1--1-1-1-1---||
 |--2--2--2-2-2-2--||--2--2--2-2-2-2---||
 |--3--3--3-3-3-3--||--3--3--3-3-3-3---||
 |--3--3--3-3-3-3-o||--3--3--3-3-3-3---||
 |--1--1--1-1-1-1--||--1--1--1-1-1-1---||

|
| W W
 
 |-^1--------------||-^1---------------||
 |-^1-------------o||-^1---------------||
 |-^2--------------||-^2---------------||
 |-^3--------------||-^3---------------||
 |-^3-------------o||-^3---------------||
 |-^1--------------||-^1---------------||

Bridge
[Bb]W [F]W [Bb]W [F]W
 
 |-6--------------|-1-------------|-6--------------|-1-------------|
 |-6--------------|-1-------------|-6--------------|-1-------------|
 |-7--------------|-2-------------|-7--------------|-2-------------|
 |-8--------------|-3-------------|-8--------------|-3-------------|
 |-8--------------|-3-------------|-8--------------|-3-------------|
 |-6--------------|-1-------------|-6--------------|-1-------------|

|
| Q E E E E E E Q E E E E Q Q E E E E E E Q E E E E Q
 
 |----5---5p3-3p1-|----3---3p1-1--|----5---5p3-3p1-|----3---3p1-1--|
 |------3---------|------1--------|------3---------|------1--------|
 |----------------|---------------|----------------|---------------|
 |----------------|---------------|----------------|---------------|
 |----------------|---------------|----------------|---------------|
 |----------------|---------------|----------------|---------------|

D.S. al Coda
[Bb]W [F]W [Bb]W [F]W
 
 |-6--------------|-1-------------|-6--------------|-1-------------||
 |-6--------------|-1-------------|-6--------------|-1-------------||
 |-7--------------|-2-------------|-7--------------|-2-------------||
 |-8--------------|-3-------------|-8--------------|-3-------------||
 |-8--------------|-3-------------|-8--------------|-3-------------||
 |-6--------------|-1-------------|-6--------------|-1-------------||

|
| Q E E E E E E Q E E E E Q Q E E E E E E Q E E E E Q
 
 |----5---5p3-3p1-|----3---3p1-1--|----5---5p3-3p1-|----3---3p1-1--||
 |------3---------|------1--------|------3---------|------1--------||
 |----------------|---------------|----------------|---------------||
 |----------------|---------------|----------------|---------------||
 |----------------|---------------|----------------|---------------||
 |----------------|---------------|----------------|---------------||

Outro
&
[F] Q Q E E E E [Bb]W
 
 |--1--1--1-1-1-1-||--6--------------|
 |--1--1--1-1-1-1-||o-6--------------|
 |--2--2--2-2-2-2-||--7--------------|
 |--3--3--3-3-3-3-||--8--------------|
 |--3--3--3-3-3-3-||o-8--------------|
 |--1--1--1-1-1-1-||--6--------------|

|
| W Q E E E E E E
 
 |-^1-------------||-----5---5p3-3p1-|
 |-^1-------------||o------3---------|
 |-^2-------------||-----------------|
 |-^3-------------||-----------------|
 |-^3-------------||o----------------|
 |-^1-------------||-----------------|

[F]W [Bb]W [F]W 3x
 
 |-1-------------|-6--------------|-1--------------||
 |-1-------------|-6--------------|-1-------------o||
 |-2-------------|-7--------------|-2--------------||
 |-3-------------|-8--------------|-3--------------||
 |-3-------------|-8--------------|-3-------------o||
 |-1-------------|-6--------------|-1--------------||

|
| Q E E E E Q Q E E E E E E Q E E E E Q 3x
 
 |----3---3p1-1--|----5---5p3-3p1-|----3---3p1-1---||
 |------1--------|------3---------|------1--------o||
 |---------------|----------------|----------------||
 |---------------|----------------|----------------||
 |---------------|----------------|---------------o||
 |---------------|----------------|----------------|| 


Important: The song above is NOT stored on the Chordie server. The original song is hosted at www.azchords.com. Chordie works as a search engine and provides on-the-fly formatting. Chordie does not index songs against artists'/composers' will. To remove this song please click here.

Text color:
Chord color:
Chord grids: 
Font size:    
Page size: 

Bb Bbm C E F
Rate #1 of 3 versions

Login - add to songbook

SHARE PAGE  




You need to log in to post comments