Guitar Tabs, Chords and Lyrics
Server problems seems to be fixed. Chordie has been experiencing problems with songs disappearing. These issues now seems to be fixed, but still verifying the fix. If you find anything strange, please email admin@chordie.com.


The Lantern  The Rolling Stones

Gtr I (E A D G B E) - 'Keith Richards - Acoustic Guitar'
Gtr II (E A D G B E) - 'Keith Richards - Electric Guitar'
Gtr III (E A D G B E) - 'Keith Richards - Electric Guitar'
Gtr IV (E A D G B E) - 'Bell'
Intro 1
Q=98
N.C. E5 C/E
[4/4] Gtr IV (Bell) Gtr I (Ac. Gtr.)
W W E E E E E E E E E E E E E E E E
 
 |----------|----------|-----------------|--------------------------|
 |----------|----------|-----------------|--------------------------|
 |----------|----------|-----------------|--------------------------|
 |----------|----------|-9-9-9-9-9-9-9-9-|-10-10-10-10-10-10-10-10--|
 |----------|----------|-7-7-7-7-7-7-7-7-|--7--7--7--7--7--7--7--7--|
 |-0--------|-0--------|-0-0-0-0-0-0-0-0-|--0--0--0--0--0--0--0--0--|

[Dsus2/E] [C/E]  
[E] [E] [E] [E] [E] [E] [E] [E] [E] [E] [E] [E] [E] [E] [E] [E]  
 
 |-------------------------|-------------------------|
 |-------------------------|-------------------------|
 |-------------------------|-------------------------|
 |-12-12-12-12-12-12-12-12-|-10-10-10-10-10-10-10-10-|
 |--7--7--7--7--7--7--7--7-|--7--7--7--7--7--7--7--7-|
 |--0--0--0--0--0--0--0--0-|--0--0--0--0--0--0--0--0-|

[B7b9]  
Q Q Q Q [3/4] +H Q
 
 |--------------|------------||
 |--------------|------------||
 |-----------8--|-(8)--------||
 |-------10-----|------------||
 |----9---------|------------||
 |-7------------|--------7\--||

Intro 2 & Interlude
$
[E] [A] [G] [E] [G] 
[4/4] ~
Q E. S E S S E E Q E. S E S S Q
 
 ||-----0--0---0-0-0---|-----0--0---0-0----|
 ||o----0--0---0-0-2-0-|-----0--0---0-0----|
 ||-----1--1---1-1-2-0-|-----1--1---1-1----|
 ||-----2--2---2-2-2-0-|-----2--2---2-2----|
 ||o---------------0-2-|-------------------|
 ||--0-------0-------3-|--0-------0-----3--|

|
| Gtr II (El. Gtr.)
| W W
 
 ||--0-----------------|-10----------------|
 ||o-0-----------------|--9----------------|
 ||--1-----------------|--9----------------|
 ||--------------------|--9----------------|
 ||o-------------------|-------------------|
 ||--------------------|-------------------|

[E]Q E. S E S S [G] E [A]E [E] Q E. S E E S S S S
 
 |----0--0---0-0------|-------0--0-0-0-0-0-0-0-||
 |----0--0---0-0------|-------0--0-0-0-0-0-0-0-||
 |----1--1---1-1--0-2-|-------1--1-1-1-1-1-1-1-||
 |----2--2---2-2--0-2-|-------2--2-2-2-2-2-2-2-||
 |----------------2-0-|------------------------||
 |-0-------0------3---|---0--------------------||

|
| H Q Q +W
 
 |---------------10---|-(10)-------------------||
 |----------------9---|--(9)-------------------||
 |----------------9---|--(9)-------------------||
 |----------------9---|--(9)-------------------||
 |--------------------|------------------------||
 |--------------------|------------------------||

1st - 3rd Verses
W Q Q Q E E [A]Q E. S S S E E S S
 
 |-0--------|----0-----0-0-|-0--0--0-0-0-0-0-0-0-|
 |-0--------|----0-----0-0-|-2--2--2-2-2-2-2-2-2-|
 |-1--------|----1-----1-1-|-2--2--2-2-2-2-2-2-2-|
 |-2--------|----2-----2-2-|-2--2--2-2-2-2-2-2-2-|
 |-2--------|----2-----2-2-|-0--0--0-0-0-0-0-0-0-|
 |-0--------|----0-----0-0-|---------------------|

|
| Gtr III (El. Gtr.)
| W W W
 
 |----------|--------------|---------------------|
 |----------|--------------|---------------------|
 |----------|--------------|---------------------|
 |----------|--------------|---------------------|
 |----------|--------------|-0-------------------|
 |-0--------|-4------------|---------------------|

[B]E E E S S S S E [A]E E
 
 |-2--2-2---2-2-2-2-2---0---0-----|
 |-4--4-4---4-4-4-4-4---2---2-----|
 |-4--4-4---4-4-4-4-4---2---2-----|
 |-4--4-4---4-4-4-4-4---2---2-----|
 |-2--2-2---2-2-2-2-2---0---0-----|
 |--------------------------------|

|
| E E S S S S S S S S S S S S
 
 |--------0---0---0-------0---0---|
 |------0---5---5-----0-5---5-----|
 |---/4-------------4-------------|
 |--------------------------------|
 |--------------------------------|
 |--------------------------------|

[E] [A] [F#] 
H. E E Q Q Q E E Q E S S S S E E E [2/4] E E E S S
 
 |-0-------0-0-|-0----------0-|-0--0-0-0-0-0-0-0-0-|-2-2-2-2-2-|
 |-0-------0-0-|-0----------0-|-2--2-2-2-2-2-2-2-2-|-2-2-2-2-2-|
 |-1-------1-1-|-1----------1-|-2--2-2-2-2-2-2-2-2-|-3-3-3-3-3-|
 |-2-------2-2-|-2----------2-|-2--2-2-2-2-2-2-2-2-|-4-4-4-4-4-|
 |-2-------2-2-|-2----------2-|-0--0-0-0-0-0-0-0-0-|-4-4-4-4-4-|
 |-0-------0-0-|-0----------0-|--------------------|-2-2-2-2-2-|

|
| W W W W
 
 |-------------|--------------|--------------------|-----------|
 |-------------|--------------|--------------------|-----------|
 |-------------|--------------|--------------------|-----------|
 |-------------|--------------|--------------------|-----------|
 |-------------|--------------|-0------------------|-----------|
 |-0-----------|-4------------|--------------------|-----------|

[B]  
[4/4] S S E E S S S S E E S S E E E S S S S S S E E
 
 |--2-2-2-2-2-2--2-2-2-2-2-2-|--2-2-2--2-2-2-2--2-2-2-2-|
 |--4-4-4-4-4-4--4-4-4-4-4-4-|--4-4-4--4-4-4-4--4-4-4-4-|
 |--4-4-4-4-4-4--4-4-4-4-4-4-|--4-4-4--4-4-4-4--4-4-4-4-|
 |--4-4-4-4-4-4--4-4-4-4-4-4-|--4-4-4--4-4-4-4--4-4-4-4-|
 |--2-2-2-2-2-2--2-2-2-2-2-2-|--2-2-2--2-2-2-2--2-2-2-2-|
 |---------------------------|--------------------------|

|
| E E E E E E E E E E E E E E E E
 
 |--------0------------0-----|------0------0----------0-|
 |------0---0--------0---0---|----0---/5------------0---|
 |-/4-----------/4-----------|-/4--------------/4-------|
 |---------------------------|--------------------------|
 |---------------------------|--------------------------|
 |---------------------------|--------------------------|

[E]W [B] W
 
 |-0-------------|--2-----------|
 |-0-------------|--4-----------|
 |-1-------------|--4-----------|
 |-2-------------|--4-----------|
 |-2-------------|--2-----------|
 |-0-------------|--------------|

|
| H. Q Q. E H
 
 |-0-------------|--------------|
 |-0-------------|--------------|
 |-1-------------|--------------|
 |---------------|--------------|
 |---------<12>--|-11----9-9----|
 |---------------|--------------|

[C#m]H [C#m7]H [F#]E E E S S S S E E E E E E S S S S E E E [E]W
 
 |-4-----4-----|-2-2-2-2-2-2-2-2-2-2-|--2-2-2-2-2-2-2-2-2-2-|-0----|
 |-5-----5-----|-2-2-2-2-2-2-2-2-2-2-|--2-2-2-2-2-2-2-2-2-2-|-0----|
 |-6-----4-----|-3-3-3-3-3-3-3-3-3-3-|--3-3-3-3-3-3-3-3-3-3-|-1----|
 |-6-----6-----|-4-4-4-4-4-4-4-4-4-4-|--4-4-4-4-4-4-4-4-4-4-|-2----|
 |-4-----4-----|-4-4-4-4-4-4-4-4-4-4-|--4-4-4-4-4-4-4-4-4-4-|-2----|
 |-------------|-2-2-2-2-2-2-2-2-2-2-|--2-2-2-2-2-2-2-2-2-2-|-0----|

|
| Q Q Q Q Q Q Q Q Q Q Q Q W
 
 |-------------|---------------------|----------------------|------|
 |-------------|---------------------|----------------------|------|
 |-------------|---------------------|----------------------|------|
 |-------------|---------------------|----------------------|------|
 |-7--6--4--2--|-1-------------------|-/1-------------------|------|
 |-------------|-----4-----2-----0---|------4-----2-----0---|-0----|

[A] [F#] 
Q E E E E E E E E E E E E E E Q E S S S S E E S S [2/4] E E E S S
 
 |-----0-0-0-0-0-0-|-0-0--0-0--0--0--0-0-|-0--0-0-0-0-0-0-0-0-0-|-2-2-2-2-2--|
 |-----0-0-0-0-0-0-|-0-0--0-0--0--0--0-0-|-2--2-2-2-2-2-2-2-2-2-|-2-2-2-2-2--|
 |-----1-1-1-1-1-1-|-1-1--1-1--1--1--1-1-|-2--2-2-2-2-2-2-2-2-2-|-3-3-3-3-3--|
 |-----2-2-2-2-2-2-|-2-2--2-2--2--2--2-2-|-2--2-2-2-2-2-2-2-2-2-|-4-4-4-4-4--|
 |-----2-2-2-2-2-2-|-2-2--2-2--2--2--2-2-|-0--0-0-0-0-0-0-0-0-0-|-4-4-4-4-4--|
 |-----0-0-0-0-0-0-|-0-0--0-0--0--0--0-0-|----------------------|-2-2-2-2-2--|

|
| H. Q E E E E +E Q. W W
 
 |-----------------|-7-9-10-9-(9)-7------|-5--------------------|------------|
 |-----------------|---------------------|----------------------|------------|
 |-----------------|-4-6--7-9-(9)-7------|-6--------------------|------------|
 |-----------------|---------------------|----------------------|------------|
 |-----------------|---------------------|----------------------|------------|
 |-4---------------|---------------------|----------------------|------------|

[B]  
[4/4] S S E E S S S S E E S S
 
 |-2-2-2-2--2-2-2-2-2-2-2-2-|
 |-4-4-4-4--4-4-4-4-4-4-4-4-|
 |-4-4-4-4--4-4-4-4-4-4-4-4-|
 |-4-4-4-4--4-4-4-4-4-4-4-4-|
 |-2-2-2-2--2-2-2-2-2-2-2-2-|
 |--------------------------|

|
| Q E. S S S E E E
 
 |------------------0-------|
 |----------------0-----0---|
 |------------2S4-----4-----|
 |--------------------------|
 |--------------------------|
 |--------------------------|

Interlude
To Coda
E E E S S +S S S S E E [E] E E E E E E E E
 
 |--2-2-2-2-2-(2)-2-2-2--2-2---||-------------------------|
 |--4-4-4-4-4-(4)-4-4-4--4-4--o||-------------------------|
 |--4-4-4-4-4-(4)-4-4-4--4-4---||--9--9--9--9--9--9--9--9-|
 |--4-4-4-4-4-(4)-4-4-4--4-4---||--9--9--9--9--9--9--9--9-|
 |--2-2-2-2-2-(2)-2-2-2--2-2--o||-11-11-11-11-11-11-11-11-|
 |-----------------------------||--0--0--0--0--0--0--0--0-|

|
| E E E S S E E E E W
 
 |------0---0-------0------0---||-------------------------|
 |----0-------/5--------------o||-------------------------|
 |-/4-----4-------------/4-----||-------------------------|
 |-----------------------------||-------------------------|
 |----------------------------o||-------------------------|
 |-----------------------------||-------------------------|

[F#m7/E] [D/E] [E6] [Am/E] 
[E] [E] [E] [E] [E] [E] [E] [E] [E] [E] [E] [E] [E] [E] [E] [E] [E] [E] [E] [E] [E] [E] [E] [E] [E] [E] [E] [E] [E] [E] [E] [E]  
 
 |-----------------|-----------------|-----------------|------------------|
 |-----------------|-----------------|-----------------|------------------|
 |-9-9-9-9-9-9-9-9-|-7-7-7-7-7-7-7-7-|-6-6-6-6-6-6-6-6-|-2-2-2-2-2-2-2-2--|
 |-7-7-7-7-7-7-7-7-|-7-7-7-7-7-7-7-7-|-6-6-6-6-6-6-6-6-|-2-2-2-2-2-2-2-2--|
 |-9-9-9-9-9-9-9-9-|-9-9-9-9-9-9-9-9-|-7-7-7-7-7-7-7-7-|-3-3-3-3-3-3-3-3--|
 |-0-0-0-0-0-0-0-0-|-0-0-0-0-0-0-0-0-|-0-0-0-0-0-0-0-0-|-0-0-0-0-0-0-0-0--|

D.S. al Coda
[C/E] [B7]  
E E E E E E E E W [2/4] +H
 
 |-----------------|----------|--------||
 |-1-1-1-1-1-1-1-1-|-0--------|-(0)----||
 |-0-0-0-0-0-0-0-0-|-2--------|-(2)----||
 |-2-2-2-2-2-2-2-2-|-1--------|-(1)----||
 |-3-3-3-3-3-3-3-3-|-2--------|-(2)----||
 |-0-0-0-0-0-0-0-0-|----------|--------||

Interlude
&
[E] [F#m7/E] [D/E] 
[4/4]  
[E] [E] [E] [E] [E] [E] [E] [E] [E] [E] [E] [E] [E] [E] [E] [E] [E] [E] [E] [E] [E] [E] [E] [E]  
 
 |-------------------------|-----------------|-----------------|
 |-------------------------|-----------------|-----------------|
 |--9--9--9--9--9--9--9--9-|-9-9-9-9-9-9-9-9-|-7-7-7-7-7-7-7-7-|
 |--9--9--9--9--9--9--9--9-|-7-7-7-7-7-7-7-7-|-7-7-7-7-7-7-7-7-|
 |-11-11-11-11-11-11-11-11-|-9-9-9-9-9-9-9-9-|-9-9-9-9-9-9-9-9-|
 |--0--0--0--0--0--0--0--0-|-0-0-0-0-0-0-0-0-|-0-0-0-0-0-0-0-0-|

[E6] [Am/E] [C/E] 
[E] [E] [E] [E] [E] [E] [E] [E] [E] [E] [E] [E] [E] [E] [E] [E] [E] [E] [E] [E] [E] [E] [E] [E]  
 
 |-----------------|-----------------|-----------------||
 |-----------------|-----------------|-1-1-1-1-1-1-1-1-||
 |-6-6-6-6-6-6-6-6-|-2-2-2-2-2-2-2-2-|-0-0-0-0-0-0-0-0-||
 |-6-6-6-6-6-6-6-6-|-2-2-2-2-2-2-2-2-|-2-2-2-2-2-2-2-2-||
 |-7-7-7-7-7-7-7-7-|-3-3-3-3-3-3-3-3-|-3-3-3-3-3-3-3-3-||
 |-0-0-0-0-0-0-0-0-|-0-0-0-0-0-0-0-0-|-0-0-0-0-0-0-0-0-||

Outro
[B7]W [E]W [B] Q. E H [C#m]H Q E E
 
 |-2--------|-0-------------|--2--------2----2----|-4--------4-4-|
 |-0--------|-0-------------|--4--------4----4----|-5--------5-5-|
 |-2--------|-1-------------|--4--------4----4----|-6--------6-6-|
 |-1--------|-2-------------|--4--------4----4----|-6--------6-6-|
 |-2--------|-2-------------|--2--------2----2----|-4--------4-4-|
 |----------|-0-------------|---------------------|--------------|

|
| Gtr III
| W H Q Q Q +E S S H Q Q Q Q
 
 |----------|---------------|---------------------|--------------|
 |----------|---------------|---------------------|--------------|
 |----------|---------------|---------------------|--------------|
 |----------|---------------|---------------------|--------------|
 |----------|---------<12>--|-11---(11)-9h11p9----|-7--6--4--2---|
 |----------|---------------|---------------------|--------------|

[F#]E E E S S E E E S S E E E S S S S S S E E [E]W
 
 |-2-2-2-2-2-2-2-2-2-2-|--2-2-2-2-2-2-2-2-2-2-2-|-0----|
 |-2-2-2-2-2-2-2-2-2-2-|--2-2-2-2-2-2-2-2-2-2-2-|-0----|
 |-3-3-3-3-3-3-3-3-3-3-|--3-3-3-3-3-3-3-3-3-3-3-|-1----|
 |-4-4-4-4-4-4-4-4-4-4-|--4-4-4-4-4-4-4-4-4-4-4-|-2----|
 |-4-4-4-4-4-4-4-4-4-4-|--4-4-4-4-4-4-4-4-4-4-4-|-2----|
 |-2-2-2-2-2-2-2-2-2-2-|--2-2-2-2-2-2-2-2-2-2-2-|-0----|

|
| Q Q Q Q Q Q Q Q W
 
 |---------------------|------------------------|------|
 |---------------------|------------------------|------|
 |---------------------|------------------------|------|
 |---------------------|------------------------|------|
 |-1-------------------|-/1---------------------|------|
 |-----4-----2---0-----|------4-----2-------0---|-0----|

N.C. E A N.C.
W E E E E +E Q. W Wx2
 
 |----------|-0-0--0-0-(0)-0----|-0--------|--------*|
 |----------|-0-0--0-0-(0)-0----|-2--------|--------*|
 |----------|-1-1--1-1-(1)-1----|-2--------|--------*|
 |----------|-2-2--2-2-(2)-2----|-2--------|--------*|
 |----------|-2-2--2-2-(2)-2----|-0--------|--------*|
 |----------|-0-0--0-0-(0)-0----|----------|--------*|

|
| W E E E E +E Q. W Wx2
 
 |----------|-7-9-10-9-(9)-7----|-5--------|--------*|
 |----------|-------------------|----------|--------*|
 |----------|-4-6--7-9-(9)-7----|-6--------|--------*|
 |----------|-------------------|----------|--------*|
 |----------|-------------------|----------|--------*|
 |-4--------|-------------------|----------|--------*| 


Important: The song above is NOT stored on the Chordie server. The original song is hosted at www.azchords.com. Chordie works as a search engine and provides on-the-fly formatting. Chordie does not index songs against artists'/composers' will. To remove this song please click here.

Text color:
Chord color:
Chord grids: 
Font size:    
Page size: 

A Am/E B B7 B7b9 C#m C#m7 C/E D/E Dsus2/E E E6 F# F#m7/E G
Rate #1 of 4 versions

Jango Player

Login - add to songbook

SHARE PAGE  



You need to log in to post comments