Guitar Tabs, Chords and Lyrics
Server problems seems to be fixed. Chordie has been experiencing problems with songs disappearing. These issues now seems to be fixed, but still verifying the fix. If you find anything strange, please email admin@chordie.com.


Necio   Romeo Santos

 
 e|-----|--------------------|------------|--h-p--s-|---6-8--9-8-|-9-8--9-8\6-|-8-6---|-9--6--p----------------|
 B|-----|----s--s-----s-s----|----s--s--9-|-6-9-6-\-|-6----------|------------|-----9-|------8-6--b--p------p--|
 G|--s--|-6-8\10/8--6\8/6--6-|-6-8\10/8---|---------|------------|------------|-------|-----------8-8-6---10-6-|
 D|-6\8-|--------------------|------------|---------|------------|------------|-------|-----------------8------|
 A|-----|--------------------|------------|---------|------------|------------|-------|------------------------|
 E|-----|--------------------|------------|---------|------------|------------|-------|------------------------|

 


 


 ********


 VOCALS


 ********


 


 00:35 00:48 01:21


 

 
 e|-------------| e|-------------------| e|-------6------------------------|
 B|-------------| B|-----6-9-7-6-brb---| B|-----6---9-7--s---------h---6---|
 G|---------6---| G|-6-8---------8---8-| G|-6-8---------8\10-8-6-6--8----8-|
 D|--s--6-8---8-| D|-------------------| D|--------------------------------|
 A|-4\8---------| A|-------------------| A|--------------------------------|
 E|-------------| E|-------------------| E|--------------------------------|
 -----------------

 


 01:29


 CHORUS?


 *******


 

 
 e|--------------|--------------|---b-|
 B|--s----h-p-s--|--s----h-p-s--|-7---|
 G|-6\8--6-8-6\5-|-6\8--6-8-6\5-|-----|
 D|--------------|--------------|-----|
 A|--------------|--------------|-----|
 E|--------------|--------------|-----|

 


 


 01:45


 

 
 e|-----|--------------------|------------|--s-------------------|-------11-11-11----|
 B|-----|----s--s-----s-s----|----s--s--9-|-9\11-9--------h--p---|-11-14----------11-|
 G|--s--|-6-8\10/8--6\8/6--6-|-6-8\10/8---|--------10-8-10-13-10-|-------------------|
 D|-6\8-|--------------------|------------|----------------------|-------------------|
 A|-----|--------------------|------------|----------------------|-------------------|
 E|-----|--------------------|------------|----------------------|-------------------|

 


 


 [b] [b] [b] [b] [b]  

 
 e|----9-11-11-11-11-11--11-11-9-11-------|
 B|-11------------------------------11~~~-|
 G|---------------------------------------|
 D|---------------------------------------|
 A|---------------------------------------|
 E|---------------------------------------|

 


 


 ********


 VOCALS


 ********


 


 02:23


 

 
 e|-----|----------------h-p----------------|-------|-------|---------------|
 B|--s--|-----6-9-7-6-7-6-7-6---6-------6---|---s---|---s---|--b--------brb-|
 G|-6\8-|-6-8-----------------8---8-6-8---8-|-8-\10-|-10\13-|-13-13-11-11---|
 D|-----|-----------------------------------|-------|-------|---------------|
 A|-----|-----------------------------------|-------|-------|---------------|
 E|-----|-----------------------------------|-------|-------|---------------|

 


 


 02:41


 

 
 e|--------|-------6-------------------|
 B|--s--s--|-----6---9-7--s---------h--|
 G|-8\10/8-|-6-8---------8\10-8-6-6--8-|
 D|--------|---------------------------|
 A|--------|---------------------------|
 E|--------|---------------------------|
 -----------------

 


 02:57


 CHORUS?


 *******


 

 
 e|---------|---------|
 B|--h-p-s--|--h-p-s--|
 G|-6-8-6\5-|-6-8-6\5-|
 D|---------|---------|
 A|---------|---------|
 E|---------|---------|
 -----------------

 


 03:13


 SOLO


 ***** p p h p p h p p h p p b


 

 
 e|---6----s-|---6-8-9-8-6--9-8-6--9-8-6--9-8-6--8-9-8-6-8-|-----6-|-8-9-8-6-|-8-9-8-6--8-8-8-8-6-6-|
 B|-6---6--\-|-6-------------------------------------------|---9---|---------|----------------------|
 G|----------|---------------------------------------------|-8-----|---------|----------------------|
 D|----------|---------------------------------------------|-------|---------|----------------------|
 A|----------|---------------------------------------------|-------|---------|----------------------|
 E|----------|---------------------------------------------|-------|---------|----------------------|

 


 slow


 br s p p p p p b b b b b b brp b b brp


 

 
 e|-11-9-11-9-9-|-12\14-13-16-13-16-13-16-13-16-13-16-13-16--16-16-16-16-16-|-16--13-|-16-16-16--13-|
 B|-------------|-----------------------------------------------------------|--------|--------------|
 G|-------------|-----------------------------------------------------------|--------|--------------|
 D|-------------|-----------------------------------------------------------|--------|--------------|
 A|-------------|-----------------------------------------------------------|--------|--------------|
 E|-------------|-----------------------------------------------------------|--------|--------------|

 


 


 03:33


 [b] [b]  

 
 e|-16--16-16-14-13-14-13----------13----------|----------------------|----------|
 B|-----------------------16-14-16----16-14-16-|-14-14-13---------h---|-13-----s-|
 G|--------------------------------------------|----------13----13-15-|----13--\-|
 D|--------------------------------------------|-------------15-------|----------|
 A|--------------------------------------------|----------------------|----------|
 E|--------------------------------------------|----------------------|----------|

 


 


 ********


 VOCALS


 ********


 


 03:55


 

 
 e|----------------|----------------|
 B|--b-11-14-13-11-|----------------|
 G|-13-------------|-13-11-10----10-|
 D|----------------|----------13----|
 A|----------------|----------------|
 E|----------------|----------------|
 -----------------

 


 04:03


 CHORUS?


 *******


 b b b rbp b


 

 
 e|-11-11-11-11-9-11-11--9-|---b-|-16--16-14--13-14-13----------13-----------|
 B|------------------------|-7---|---------------------16-14-16----14-----14-|
 G|------------------------|-----|-------------------------------------------|
 D|------------------------|-----|-------------------------------------15----|
 A|------------------------|-----|-------------------------------------------|
 E|------------------------|-----|-------------------------------------------| 


Important: The song above is NOT stored on the Chordie server. The original song is hosted at www.azchords.com. Chordie works as a search engine and provides on-the-fly formatting. Chordie does not index songs against artists'/composers' will. To remove this song please click here.

This song is displayed as text-only. Transposing and tuning is only available for chordpro-songs.
Rate #1 of 1 versions

Jango Player

Login - add to songbook

SHARE PAGE  



You need to log in to post comments