Guitar Tabs, Chords and Lyrics
Major upgrade!! After one year development the new version of Chordie is now online! Please give feedback.


In Dreams  Roy Orbison

Gtr I (E A D G B E) - 'Roy Orbison - Electric Guitar'
Gtr II (E A D G B E) - 'Elvis Costello - Acoustic Guitar'
Intro
Freely Q=104
[C/G] [Am] [F] 
[4/4] Gtr I
W H H W W
 
 |-^0--------:-^0----^0----:-^0--------:-^1----:
 |-^1--------:-^1----^1----:-^1--------:-^1----:
 |-^0--------:-^0----^0----:-^2--------:-^2----:
 |-^2--------:-^2----^2----:-^2--------:-^3----:
 |-^3--------:-^3----^3----:-^0--------:-------:
 |-^3--------:-^3----^3----:-----------:-^1----:

[G] W [C/G] W [Am] W
 
 |-----------:-^0--------:-^0----:
 |-----------:-^1--------:-^1----:
 |-^0--------:-^0--------:-^2----:
 |-^0--------:-^2--------:-^2----:
 |-^2--------:-^3--------:-^0----:
 |-^3--------:-^3--------:-------:

[F] H [G] H [C/G] W +W
 
 |-^1----------|-^0--------|-(0)----||
 |-^1----------|-^1--------|-(1)----||
 |-^2----^0----|-^0--------|-(0)----||
 |-^3----^0----|-^2--------|-(2)----||
 |-------^2----|-^3--------|-(3)----||
 |-^1----^3----|-^3--------|-(3)----||

1st Verse
In time Q=104
[C/G]Gtrs I, II
E S S E E +E E E E E S S E E +E E E E
 
 |-0-0-0-0-0-(0)-0-0-0-|-0-0-0-0-0-(0)-0-0-0-|
 |-1-1-1-1-1-(1)-1-1-1-|-1-1-1-1-1-(1)-1-1-1-|
 |-0-0-0-0-0-(0)-0-0-0-|-0-0-0-0-0-(0)-0-0-0-|
 |-2-2-2-2-2-(2)-2-2-2-|-2-2-2-2-2-(2)-2-2-2-|
 |-3-3-3-3-3-(3)-3-3-3-|-3-3-3-3-3-(3)-3-3-3-|
 |-3-3-3-3-3-(3)-3-3-3-|-3-3-3-3-3-(3)-3-3-3-|

[Dm]E S S E E +E E E E E S S E E +E E E E
 
 |-1-1-1-1-1-(1)-1-1-1-|-1-1-1-1-1-(1)-1-1-1-|
 |-3-3-3-3-3-(3)-3-3-3-|-3-3-3-3-3-(3)-3-3-3-|
 |-2-2-2-2-2-(2)-2-2-2-|-2-2-2-2-2-(2)-2-2-2-|
 |-0-0-0-0-0-(0)-0-0-0-|-0-0-0-0-0-(0)-0-0-0-|
 |---------------------|---------------------|
 |---------------------|---------------------|

[G7]E S S E E +E E E E E S S E E +E E E E
 
 |-1-1-1-1-1-(1)-1-1-1-|-1-1-1-1-1-(1)-1-1-1-|
 |-3-3-3-3-3-(3)-3-3-3-|-3-3-3-3-3-(3)-3-3-3-|
 |-0-0-0-0-0-(0)-0-0-0-|-0-0-0-0-0-(0)-0-0-0-|
 |-0-0-0-0-0-(0)-0-0-0-|-0-0-0-0-0-(0)-0-0-0-|
 |-2-2-2-2-2-(2)-2-2-2-|-2-2-2-2-2-(2)-2-2-2-|
 |-3-3-3-3-3-(3)-3-3-3-|-3-3-3-3-3-(3)-3-3-3-|

[C/G]E S S E E +E E E E E S S E E +E E E E
 
 |-0-0-0-0-0-(0)-0-0-0-|-0-0-0-0-0-(0)-0-0-0-|
 |-1-1-1-1-1-(1)-1-1-1-|-1-1-1-1-1-(1)-1-1-1-|
 |-0-0-0-0-0-(0)-0-0-0-|-0-0-0-0-0-(0)-0-0-0-|
 |-2-2-2-2-2-(2)-2-2-2-|-2-2-2-2-2-(2)-2-2-2-|
 |-3-3-3-3-3-(3)-3-3-3-|-3-3-3-3-3-(3)-3-3-3-|
 |-3-3-3-3-3-(3)-3-3-3-|-3-3-3-3-3-(3)-3-3-3-|

E S S E E +E E E E E S S E E +E E E E
 
 |-0-0-0-0-0-(0)-0-0-0-|-0-0-0-0-0-(0)-0-0-0-|
 |-1-1-1-1-1-(1)-1-1-1-|-1-1-1-1-1-(1)-1-1-1-|
 |-0-0-0-0-0-(0)-0-0-0-|-0-0-0-0-0-(0)-0-0-0-|
 |-2-2-2-2-2-(2)-2-2-2-|-2-2-2-2-2-(2)-2-2-2-|
 |-3-3-3-3-3-(3)-3-3-3-|-3-3-3-3-3-(3)-3-3-3-|
 |-3-3-3-3-3-(3)-3-3-3-|-3-3-3-3-3-(3)-3-3-3-|

[Dm]E S S E E +E E E E E S S E E +E E E E
 
 |-1-1-1-1-1-(1)-1-1-1-|-1-1-1-1-1-(1)-1-1-1-|
 |-3-3-3-3-3-(3)-3-3-3-|-3-3-3-3-3-(3)-3-3-3-|
 |-2-2-2-2-2-(2)-2-2-2-|-2-2-2-2-2-(2)-2-2-2-|
 |-0-0-0-0-0-(0)-0-0-0-|-0-0-0-0-0-(0)-0-0-0-|
 |---------------------|---------------------|
 |---------------------|---------------------|

[G7]E S S E E +E E E E E S S E E +E E E E
 
 |-1-1-1-1-1-(1)-1-1-1-|-1-1-1-1-1-(1)-1-1-1-|
 |-3-3-3-3-3-(3)-3-3-3-|-3-3-3-3-3-(3)-3-3-3-|
 |-0-0-0-0-0-(0)-0-0-0-|-0-0-0-0-0-(0)-0-0-0-|
 |-0-0-0-0-0-(0)-0-0-0-|-0-0-0-0-0-(0)-0-0-0-|
 |-2-2-2-2-2-(2)-2-2-2-|-2-2-2-2-2-(2)-2-2-2-|
 |-3-3-3-3-3-(3)-3-3-3-|-3-3-3-3-3-(3)-3-3-3-|

[C/G]E S S E E +E E E E E S S E E +E E E E
 
 |-0-0-0-0-0-(0)-0-0-0-|-0-0-0-0-0-(0)-0-0-0-||
 |-1-1-1-1-1-(1)-1-1-1-|-1-1-1-1-1-(1)-1-1-1-||
 |-0-0-0-0-0-(0)-0-0-0-|-0-0-0-0-0-(0)-0-0-0-||
 |-2-2-2-2-2-(2)-2-2-2-|-2-2-2-2-2-(2)-2-2-2-||
 |-3-3-3-3-3-(3)-3-3-3-|-3-3-3-3-3-(3)-3-3-3-||
 |-3-3-3-3-3-(3)-3-3-3-|-3-3-3-3-3-(3)-3-3-3-||

Chorus
[C/G]E S S E E +E E E E E S S E E +E E E E
 
 |-0-0-0-0-0-(0)-0-0-0-|-0-0-0-0-0-(0)-0-0-0-|
 |-1-1-1-1-1-(1)-1-1-1-|-1-1-1-1-1-(1)-1-1-1-|
 |-0-0-0-0-0-(0)-0-0-0-|-0-0-0-0-0-(0)-0-0-0-|
 |-2-2-2-2-2-(2)-2-2-2-|-2-2-2-2-2-(2)-2-2-2-|
 |-3-3-3-3-3-(3)-3-3-3-|-3-3-3-3-3-(3)-3-3-3-|
 |-3-3-3-3-3-(3)-3-3-3-|-3-3-3-3-3-(3)-3-3-3-|

[G7]E S S E E +E E E E E S S E E +E E E E
 
 |-1-1-1-1-1-(1)-1-1-1-|-1-1-1-1-1-(1)-1-1-1-|
 |-3-3-3-3-3-(3)-3-3-3-|-3-3-3-3-3-(3)-3-3-3-|
 |-0-0-0-0-0-(0)-0-0-0-|-0-0-0-0-0-(0)-0-0-0-|
 |-0-0-0-0-0-(0)-0-0-0-|-0-0-0-0-0-(0)-0-0-0-|
 |-2-2-2-2-2-(2)-2-2-2-|-2-2-2-2-2-(2)-2-2-2-|
 |-3-3-3-3-3-(3)-3-3-3-|-3-3-3-3-3-(3)-3-3-3-|

[F]E S S E E +E E E E [G7]E S S E E +E E E E
 
 |-1-1-1-1-1-(1)-1-1-1-|-1-1-1-1-1-(1)-1-1-1-|
 |-1-1-1-1-1-(1)-1-1-1-|-3-3-3-3-3-(3)-3-3-3-|
 |-2-2-2-2-2-(2)-2-2-2-|-0-0-0-0-0-(0)-0-0-0-|
 |-3-3-3-3-3-(3)-3-3-3-|-0-0-0-0-0-(0)-0-0-0-|
 |-3-3-3-3-3-(3)-3-3-3-|-2-2-2-2-2-(2)-2-2-2-|
 |-1-1-1-1-1-(1)-1-1-1-|-3-3-3-3-3-(3)-3-3-3-|

[C/G]E S S E E +E E E E E S S E E +E E E E
 
 |-0-0-0-0-0-(0)-0-0-0-|-0-0-0-0-0-(0)-0-0-0-|
 |-1-1-1-1-1-(1)-1-1-1-|-1-1-1-1-1-(1)-1-1-1-|
 |-0-0-0-0-0-(0)-0-0-0-|-0-0-0-0-0-(0)-0-0-0-|
 |-2-2-2-2-2-(2)-2-2-2-|-2-2-2-2-2-(2)-2-2-2-|
 |-3-3-3-3-3-(3)-3-3-3-|-3-3-3-3-3-(3)-3-3-3-|
 |-3-3-3-3-3-(3)-3-3-3-|-3-3-3-3-3-(3)-3-3-3-|

E S S E E +E E E E E S S E E +E E E E
 
 |-0-0-0-0-0-(0)-0-0-0-|-0-0-0-0-0-(0)-0-0-0-|
 |-1-1-1-1-1-(1)-1-1-1-|-1-1-1-1-1-(1)-1-1-1-|
 |-0-0-0-0-0-(0)-0-0-0-|-0-0-0-0-0-(0)-0-0-0-|
 |-2-2-2-2-2-(2)-2-2-2-|-2-2-2-2-2-(2)-2-2-2-|
 |-3-3-3-3-3-(3)-3-3-3-|-3-3-3-3-3-(3)-3-3-3-|
 |-3-3-3-3-3-(3)-3-3-3-|-3-3-3-3-3-(3)-3-3-3-|

[D]E S S E E +E E E E E S S E E +E E E E
 
 |-2-2-2-2-2-(2)-2-2-2-|-2-2-2-2-2-(2)-2-2-2-|
 |-3-3-3-3-3-(3)-3-3-3-|-3-3-3-3-3-(3)-3-3-3-|
 |-2-2-2-2-2-(2)-2-2-2-|-2-2-2-2-2-(2)-2-2-2-|
 |-0-0-0-0-0-(0)-0-0-0-|-0-0-0-0-0-(0)-0-0-0-|
 |---------------------|---------------------|
 |---------------------|---------------------|

[C/G]E S S E E +E E E E [Dm]E S S E E [G7]E S S Q
 
 |-0-0-0-0-0-(0)-0-0-0-|-1-1-1-1-1-1-1-1-1--|
 |-1-1-1-1-1-(1)-1-1-1-|-3-3-3-3-3-3-3-3-3--|
 |-0-0-0-0-0-(0)-0-0-0-|-2-2-2-2-2-0-0-0-0--|
 |-2-2-2-2-2-(2)-2-2-2-|-0-0-0-0-0-0-0-0-0--|
 |-3-3-3-3-3-(3)-3-3-3-|-----------2-2-2-2--|
 |-3-3-3-3-3-(3)-3-3-3-|-----------3-3-3-3--|

[C/G]E S S E E [Dm]E S S E E [G7]E S S E E +E E E E
 
 |-0-0-0-0-0-1-1-1-1-1-|-1-1-1-1-1-(1)-1-1-1-|
 |-1-1-1-1-1-3-3-3-3-3-|-3-3-3-3-3-(3)-3-3-3-|
 |-0-0-0-0-0-2-2-2-2-2-|-0-0-0-0-0-(0)-0-0-0-|
 |-2-2-2-2-2-0-0-0-0-0-|-0-0-0-0-0-(0)-0-0-0-|
 |-3-3-3-3-3-----------|-2-2-2-2-2-(2)-2-2-2-|
 |-3-3-3-3-3-----------|-3-3-3-3-3-(3)-3-3-3-|

Bridge
E S S E E +E E E E [C/G]E S S E E +E E E E
 
 |-1-1-1-1-1-(1)-1-1-1-||-0-0-0-0-0-(0)-0-0-0-|
 |-3-3-3-3-3-(3)-3-3-3-||-1-1-1-1-1-(1)-1-1-1-|
 |-0-0-0-0-0-(0)-0-0-0-||-0-0-0-0-0-(0)-0-0-0-|
 |-0-0-0-0-0-(0)-0-0-0-||-2-2-2-2-2-(2)-2-2-2-|
 |-2-2-2-2-2-(2)-2-2-2-||-3-3-3-3-3-(3)-3-3-3-|
 |-3-3-3-3-3-(3)-3-3-3-||-3-3-3-3-3-(3)-3-3-3-|

[Fm]E S S E E +E E E E [C/G]E S S E E +E E E E
 
 |-1-1-1-1-1-(1)-1-1-1-|-0-0-0-0-0-(0)-0-0-0-|
 |-1-1-1-1-1-(1)-1-1-1-|-1-1-1-1-1-(1)-1-1-1-|
 |-1-1-1-1-1-(1)-1-1-1-|-0-0-0-0-0-(0)-0-0-0-|
 |-3-3-3-3-3-(3)-3-3-3-|-2-2-2-2-2-(2)-2-2-2-|
 |-3-3-3-3-3-(3)-3-3-3-|-3-3-3-3-3-(3)-3-3-3-|
 |---------------------|-3-3-3-3-3-(3)-3-3-3-|

E S S E E +E E E E E S S E E +E E E E
 
 |-0-0-0-0-0-(0)-0-0-0-|-0-0-0-0-0-(0)-0-0-0-|
 |-1-1-1-1-1-(1)-1-1-1-|-1-1-1-1-1-(1)-1-1-1-|
 |-0-0-0-0-0-(0)-0-0-0-|-0-0-0-0-0-(0)-0-0-0-|
 |-2-2-2-2-2-(2)-2-2-2-|-2-2-2-2-2-(2)-2-2-2-|
 |-3-3-3-3-3-(3)-3-3-3-|-3-3-3-3-3-(3)-3-3-3-|
 |-3-3-3-3-3-(3)-3-3-3-|-3-3-3-3-3-(3)-3-3-3-|

[Fm]E S S E E +E E E E [C/G]E S S E E +E E E E
 
 |-1-1-1-1-1-(1)-1-1-1-|-0-0-0-0-0-(0)-0-0-0-|
 |-1-1-1-1-1-(1)-1-1-1-|-1-1-1-1-1-(1)-1-1-1-|
 |-1-1-1-1-1-(1)-1-1-1-|-0-0-0-0-0-(0)-0-0-0-|
 |-3-3-3-3-3-(3)-3-3-3-|-2-2-2-2-2-(2)-2-2-2-|
 |-3-3-3-3-3-(3)-3-3-3-|-3-3-3-3-3-(3)-3-3-3-|
 |---------------------|-3-3-3-3-3-(3)-3-3-3-|

E S S E E +E E E E Q E E E E Q Q E E E E Q [Dm] E S S E E +E E E E
 
 |-0-0-0-0-0-(0)-0-0-0-|----0-0-0------|----0-0-0------|-^1-1-1-1-1-(1)-1-1-1-|
 |-1-1-1-1-1-(1)-1-1-1-|----1-1-1------|----1-1-1------|-^3-3-3-3-3-(3)-3-3-3-|
 |-0-0-0-0-0-(0)-0-0-0-|----0-0-0------|----0-0-0------|-^2-2-2-2-2-(2)-2-2-2-|
 |-2-2-2-2-2-(2)-2-2-2-|----2-2-2------|----2-2-2------|-^0-0-0-0-0-(0)-0-0-0-|
 |-3-3-3-3-3-(3)-3-3-3-|----3-3-3------|----3-3-3------|----------------------|
 |-3-3-3-3-3-(3)-3-3-3-|----3-3-3------|----3-3-3------|----------------------|

E S S E E +E E E E Q [G7]E E E E Q Q E E E E Q [C/G]E S S E E +E E E E
 
 |-1-1-1-1-1-(1)-1-1-1-|---------------|---------------|-0-0-0-0-0-(0)-0-0-0-|
 |-3-3-3-3-3-(3)-3-3-3-|----6-6-6------|----6-6-6------|-1-1-1-1-1-(1)-1-1-1-|
 |-2-2-2-2-2-(2)-2-2-2-|----4-4-4------|----4-4-4------|-0-0-0-0-0-(0)-0-0-0-|
 |-0-0-0-0-0-(0)-0-0-0-|----3-3-3------|----3-3-3------|-2-2-2-2-2-(2)-2-2-2-|
 |---------------------|----5-5-5------|----5-5-5------|-3-3-3-3-3-(3)-3-3-3-|
 |---------------------|---------------|---------------|-3-3-3-3-3-(3)-3-3-3-|

E S S E E +E E E E [C]E S S E E +E E E E
 
 |-0-0-0-0-0-(0)-0-0-0-|-3-3-3-3-3-(3)-3-3-3-|
 |-1-1-1-1-1-(1)-1-1-1-|-1-1-1-1-1-(1)-1-1-1-|
 |-0-0-0-0-0-(0)-0-0-0-|-0-0-0-0-0-(0)-0-0-0-|
 |-2-2-2-2-2-(2)-2-2-2-|-2-2-2-2-2-(2)-2-2-2-|
 |-3-3-3-3-3-(3)-3-3-3-|-3-3-3-3-3-(3)-3-3-3-|
 |-3-3-3-3-3-(3)-3-3-3-|---------------------|

[Fadd9]E S S E E +E E E E [G7]E S S E E +E E E E
 
 |-3-3-3-3-3-(3)-3-3-3-|-1-1-1-1-1-(1)-1-1-1-|
 |-1-1-1-1-1-(1)-1-1-1-|-3-3-3-3-3-(3)-3-3-3-|
 |-2-2-2-2-2-(2)-2-2-2-|-0-0-0-0-0-(0)-0-0-0-|
 |-3-3-3-3-3-(3)-3-3-3-|-0-0-0-0-0-(0)-0-0-0-|
 |---------------------|-2-2-2-2-2-(2)-2-2-2-|
 |---------------------|-3-3-3-3-3-(3)-3-3-3-|

E S S E E +E E E E [C]E S S E E +E E E E
 
 |-1-1-1-1-1-(1)-1-1-1-|-3-3-3-3-3-(3)-3-3-3-|
 |-3-3-3-3-3-(3)-3-3-3-|-1-1-1-1-1-(1)-1-1-1-|
 |-0-0-0-0-0-(0)-0-0-0-|-0-0-0-0-0-(0)-0-0-0-|
 |-0-0-0-0-0-(0)-0-0-0-|-2-2-2-2-2-(2)-2-2-2-|
 |-2-2-2-2-2-(2)-2-2-2-|-3-3-3-3-3-(3)-3-3-3-|
 |-3-3-3-3-3-(3)-3-3-3-|---------------------|

[Fadd9]E S S E E +E E E E [G7]E S S E E +E E E E
 
 |-3-3-3-3-3-(3)-3-3-3-|-1-1-1-1-1-(1)-1-1-1-|
 |-1-1-1-1-1-(1)-1-1-1-|-3-3-3-3-3-(3)-3-3-3-|
 |-2-2-2-2-2-(2)-2-2-2-|-0-0-0-0-0-(0)-0-0-0-|
 |-3-3-3-3-3-(3)-3-3-3-|-0-0-0-0-0-(0)-0-0-0-|
 |---------------------|-2-2-2-2-2-(2)-2-2-2-|
 |---------------------|-3-3-3-3-3-(3)-3-3-3-|

Outro
E S S E E +E E E E [C/G]E S S E E +E E E E
 
 |-1-1-1-1-1-(1)-1-1-1-||-0-0-0-0-0-(0)-0-0-0-|
 |-3-3-3-3-3-(3)-3-3-3-||-1-1-1-1-1-(1)-1-1-1-|
 |-0-0-0-0-0-(0)-0-0-0-||-0-0-0-0-0-(0)-0-0-0-|
 |-0-0-0-0-0-(0)-0-0-0-||-2-2-2-2-2-(2)-2-2-2-|
 |-2-2-2-2-2-(2)-2-2-2-||-3-3-3-3-3-(3)-3-3-3-|
 |-3-3-3-3-3-(3)-3-3-3-||-3-3-3-3-3-(3)-3-3-3-|

E S S E E +E E E E [D]E S S E E +E E E E
 
 |-0-0-0-0-0-(0)-0-0-0-|-2-2-2-2-2-(2)-2-2-2-|
 |-1-1-1-1-1-(1)-1-1-1-|-3-3-3-3-3-(3)-3-3-3-|
 |-0-0-0-0-0-(0)-0-0-0-|-2-2-2-2-2-(2)-2-2-2-|
 |-2-2-2-2-2-(2)-2-2-2-|-0-0-0-0-0-(0)-0-0-0-|
 |-3-3-3-3-3-(3)-3-3-3-|---------------------|
 |-3-3-3-3-3-(3)-3-3-3-|---------------------|

E S S E E +E E E E [Dm]E S S E E +E E E E [G7]E S S E E +E E E E
 
 |-2-2-2-2-2-(2)-2-2-2-|-1-1-1-1-1-(1)-1-1-1-|-1-1-1-1-1-(1)-1-1-1-|
 |-3-3-3-3-3-(3)-3-3-3-|-3-3-3-3-3-(3)-3-3-3-|-3-3-3-3-3-(3)-3-3-3-|
 |-2-2-2-2-2-(2)-2-2-2-|-2-2-2-2-2-(2)-2-2-2-|-0-0-0-0-0-(0)-0-0-0-|
 |-0-0-0-0-0-(0)-0-0-0-|-0-0-0-0-0-(0)-0-0-0-|-0-0-0-0-0-(0)-0-0-0-|
 |---------------------|---------------------|-2-2-2-2-2-(2)-2-2-2-|
 |---------------------|---------------------|-3-3-3-3-3-(3)-3-3-3-|

[C/G]E S S E E +E E E E W +W
 
 |-0-0-0-0-0-(0)-0-0-0-|-0--------|-(0)----*|
 |-1-1-1-1-1-(1)-1-1-1-|-1--------|-(1)----*|
 |-0-0-0-0-0-(0)-0-0-0-|-0--------|-(0)----*|
 |-2-2-2-2-2-(2)-2-2-2-|-2--------|-(2)----*|
 |-3-3-3-3-3-(3)-3-3-3-|-3--------|-(3)----*|
 |-3-3-3-3-3-(3)-3-3-3-|-3--------|-(3)----*| 


Important: The song above is NOT stored on the Chordie server. The original song is hosted at www.azchords.com. Chordie works as a search engine and provides on-the-fly formatting. Chordie does not index songs against artists'/composers' will. To remove this song please click here.

Text color:
Chord color:
Chord grids: 
Font size:    
Page size: 

Am C C/G D Dm F Fadd9 Fm G G7
Rate #1 of 10 versions

Jango Player

Login - add to songbook

SHARE PAGE  




You need to log in to post comments