Guitar Tabs, Chords and Lyrics
Major upgrade!! After one year development the new version of Chordie is now online! Please give feedback.


Fly by Night  Rush

[Intro] 
[D] [D] [Dsus4] [Dsus4]  
 
 E|-2---2------3------3-------------------------------------|
 B|-3---3------3------3-------------------------------------|
 G|-2---2------2------2----------0-----0-----0------0-------|
 D|---------------------------2------2-----0------0-----0---|
 A|---------------------0-2-3------3-----2------2-----2-----|
 E|---------------------------------------------------------|

[D] [D] [Dsus4] [Dsus4]  
 
 E|-2---2------3------3-------------------------------------|
 B|-3---3------3------3-------------------------------------|
 G|-2---2------2------2----------0-----0-----0------0-------|
 D|---------------------------2------2-----0------0-----0---|
 A|---------------------0-2-3------3-----2------2-----2-----|
 E|---------------------------------------------------------|

[D]Why try? [Dsus4] I know w[D]hy
The f[Cadd9]eeling inside me says it's t[G/B]ime I was go[A]ne
[D]Clear head, new [Dsus4]life a[D]head
I w[Cadd9]ant to be king now not j[G/B]ust one more p[A]awn
[Cborus] 
[G] Fly by n[D]ight, awa[C]y from h[G]ere
[G]Change my l[D]ife ag[A]ain
[G]Fly by ni[D]ght goodb[C]ye my d[A]ear
My s[Cadd9]hip isn't coming and I [G/B]just can't pre[A]tend
[D] [D] [Dsus4] [Dsus4]  
 
 E|-2---2------3------3-------------------------------------|
 B|-3---3------3------3-------------------------------------|
 G|-2---2------2------2----------0-----0-----0------0-------|
 D|---------------------------2------2-----0------0-----0---|
 A|---------------------0-2-3------3-----2------2-----2-----|
 E|---------------------------------------------------------|

[Verse 2] 
[D]Moon rise, [Dsus4]thoughtful e[D]yes
[Cadd9]Staring back at me from the [G/B]window besid[A]e
[D]No fright or [Dsus4]hind s[D]ight
[Cadd9]Leaving behind that empty [G/B]feeling ins[A]ide
[Cborus] 
[G] Fly by n[D]ight, awa[C]y from h[G]ere
[G]Change my l[D]ife ag[A]ain
[G]Fly by ni[D]ght goodb[C]ye my d[A]ear
My s[Cadd9]hip isn't coming and I [G/B]just can't pre[A]tend
[Solo] 
[D] [Dsus4] [Cadd9] [G/B]  
[D] [Dsus4] [Cadd9] [G/B]  
[D] [Dsus4] [Cadd9] [G/B]  
[D] [Dsus4] [Cadd9] [G/B]  
[Cborus] 
[G] Fly by n[D]ight, awa[C]y from h[G]ere
[G]Change my l[D]ife ag[A]ain
[G]Fly by ni[D]ght goodb[C]ye my d[A]ear
My s[Cadd9]hip isn't coming and I [G/B]just can't pre[A]tend
[Bridge] 
S[D]tart a new chapter
F[F]ind what I'm after
It's cha[G]nging every d[D]ay
The ch[F]ange of a season
Is en[Am]ough of a reason
To w[G]ant to get aw[D]ay
Q[D]uiet and pensive
My t[F]houghts apprehensive
The h[G]ours drift a[D]way
[F]Leaving my homeland
P[Am]laying a lone hand
My l[G]ife begins to[D]day
[Cborus] 
[G] Fly by n[D]ight, awa[C]y from h[G]ere
[G]Change my l[D]ife ag[A]ain
[G]Fly by ni[D]ght goodb[C]ye my d[A]ear
My s[Cadd9]hip isn't coming and I [G/B]just can't pre[A]tend
M[Cadd9]y ship isn't coming and[G/B] I just can't [A]pretend
[Cborus] 
[G] Fly by n[D]ight, awa[C]y from h[G]ere
[G]Change my l[D]ife ag[A]ain
[G]Fly by ni[D]ght goodb[C]ye my d[A]ear
My s[Cadd9]hip isn't coming and I [G/B]just can't pre[A]tend
[Cadd9]My ship isn't coming an[G/B]d I just can't[A] pretend
[Cadd9]My ship isn't coming an[G/B]d I just can't[A] preten[D]d

Important: The song above is NOT stored on the Chordie server. The original song is hosted at www.azchords.com. Chordie works as a search engine and provides on-the-fly formatting. Chordie does not index songs against artists'/composers' will. To remove this song please click here.

Text color:
Chord color:
Chord grids: 
Font size:    
Page size: 

A Am C Cadd9 D Dsus4 F G G/B
Rate #1 of 9 versions

Jango Player

Login - add to songbook

SHARE PAGE  



You need to log in to post comments