Guitar Tabs, Chords and Lyrics
Server problems seems to be fixed. Chordie has been experiencing problems with songs disappearing. These issues now seems to be fixed, but still verifying the fix. If you find anything strange, please email admin@chordie.com.


Beautiful Sorta  Ryan Adams

riff 1
 
 e|----------------------------------------------------------------------|
 B|----------------------------------------------------------------------|
 G|----------------------------------------------------------------------|
 D|-------------------------------------------------------------------2--|
 A|--2-2-2-2-2-2-4-2-2-4-2-2-4-2--2-4-5--2-4-5--5-4-2-2-4-2-2-4-2-2-4-2--|
 E|--0-0-0-0-0-0-0-0-0-0-0-0-0-0--0-0-0--0-0-0--0-0-0-0-0-0-0-0-0-0-0-0--|

intro
riff 1
riff 1
All I want to do is get up get up get up
In the morning in the morning
And not want to die tomorrow tomorrow tomorrow
[Bm]I feel alr[A]ight when I th[G]ink about y[D]ou
[Em7]Walking through a star field covered in light
[Em7]Wasted like you're losing your job you're so fired
[D/F#]Just like the ones you used to make fun of
It's b[G]eautiful s[D]orta, b[G]eautiful s[D]orta, b[G]eautiful s[D]orta but n[Esus4]ot
G D G D G D B5 A riff 2
Beautiful sorta, beautiful sorta, beautiful sorta but not
riff 2
 
 e|----------5-------|
 B|------5-7---7-5\--|
 G|--6-7-------------|
 D|------------------|
 A|------------------|
 E|------------------|

riff 3
 
 e|---------|
 B|---------|
 G|---------| x8
 D|---------|
 A|--2-2-4--|
 E|--0-0-0--|

riff 1
All I want to do is get down get down get down
In the evening in the evening
And not want to die tomorrow tomorrow tomorrow
I'm b[Bm]uzzing like a j[A]ar full of l[G]ightening b[D]olts!
[Em7]Walking through a star field covered in light
[Em7]Wasted like a bum with somebody's wallet
[D/F#]Pictures inside of you and I
[D/F#]Wasted and sad I'm way past sorry
It's b[G]eautiful s[D]orta, b[G]eautiful s[D]orta, b[G]eautiful s[D]orta but n[Esus4]ot
B[G]eautiful s[D]orta, b[G]eautiful s[D]orta, b[G]eautiful s[D]orta but n[B5]ot
[Am7]I do anything I c[G]an to rem[D]ove you but it h[Am7]urts
From all the things that we st[G]arted
It's b[G]eautiful s[D]orta, b[G]eautiful s[D]orta, b[G]eautiful s[D]orta but n[Esus4]ot
B[G]eautiful s[D]orta, b[G]eautiful s[D]orta, b[G]eautiful s[D]orta but n[Esus4]ot
It's b[G]eautiful s[D]orta, b[G]eautiful s[D]orta, b[G]eautiful s[D]orta but n[Esus4]ot
B[G]eautiful s[D]orta, b[G]eautiful s[D]orta, b[G]eautiful s[D]orta but n[Esus4]ot

Important: The song above is NOT stored on the Chordie server. The original song is hosted at www.azchords.com. Chordie works as a search engine and provides on-the-fly formatting. Chordie does not index songs against artists'/composers' will. To remove this song please click here.

Text color:
Chord color:
Chord grids: 
Font size:    
Page size: 

A Am7 B5 Bm D D/F# Em7 Esus4 G
Rate #1 of 1 versions

Login - add to songbook

SHARE PAGE  




You need to log in to post comments