Guitar Tabs, Chords and Lyrics
Major upgrade!! After one year development the new version of Chordie is now online! Please give feedback.


I See Monsters  Ryan Adams

capo 3rd fret
Chords for chorus:
Cm x35543
[F]Bb [133211]x13331
D x57775
D# x68886
F2 1x0033
E2 0x0033
Intro/verse
 
 e ------------------------------
 b ------------------3-----------
 g ----------0h2-/4----\2--0-----
 d -----0h2----------------------
 a ------------------------------
 E --3---------------------------

then with random picking of the higher strings:
[F] [E] [Bb] [C]  
 
 e -----3-----3-----3-----3-------
 b -----3-----3-----3-----3-------
 g -----0-----0-----0-----0-------
 d -----0-----0-----0-----2-------
 a --------------1-----3----------
 E --1-----0----------------------

pre-chorus:
Ooh, people are screaming...
[G] [F#] [F] [E] [Bb] [C]  
 
 e ---3-----3-----3-----3-----3----------3--------
 b ---3-----3-----3-----3-----3----------3--------
 g ---0-----0-----0-----0-----0----------0--------
 d ---0-----0-----0-----0-----0----------2--------
 a -------------------------1----------3----------
 E -3-----2-----1-----0---------------------------

Chorus (with random picking):
[Cm]Ooh... [F] when she [Bb]comes,
I know that she's the [D#]one,
Makes me want it [D]harder,
[D#]Makes me want to [F2]be a little [E2]stronger,
[F2]Still I see [D]monsters
[D#]Still I see [D]mon-sters.
Outro:
[G] [F#] [F] [E]  
 
 e ---3-----3-----3-----3---
 b ---3-----3-----3-----3---
 g ---0-----0-----0-----0---
 d ---0-----0-----0-----0---
 a -------------------------
 E -3-----2-----1-----0----- 

guitar 2:
 
 e---------------
 b---------------
 g--3p2h3--------
 d---------------
 a---------------
 E---------------

intro/verse x4
pre-chorus x2
chorus
intro/verse x3
pre-chorus x2
chorus
outro x4

Important: The song above is NOT stored on the Chordie server. The original song is hosted at www.azchords.com. Chordie works as a search engine and provides on-the-fly formatting. Chordie does not index songs against artists'/composers' will. To remove this song please click here.

Text color:
Chord color:
Chord grids: 
Font size:    
Page size: 

Bb C Cm D D# E E2 F F# F2 G
Rate #1 of 5 versions

Login - add to songbook

SHARE PAGE  




You need to log in to post comments