Guitar Tabs, Chords and Lyrics
Server problems seems to be fixed. Chordie has been experiencing problems with songs disappearing. These issues now seems to be fixed, but still verifying the fix. If you find anything strange, please email admin@chordie.com.


Kim  Ryan Adams

Intro and verse
 
 e|-----------------------------------------------------------|
 B|-----------------------------------------------------------|
 G|--4/6--6-x---------------1--1--x---1--1--x-----------------|
 D|--4/6--6-x---7--7---x----2--2--x---2--2--x-----------------|
 A|--2/4--4-x---7--7---x----2--2--x---2--2--x-----------------|
 E|-------------5--5---x----0--0--x---0--0--x-----------------|

Bridge
 
 e|-----------------------------------------2------|
 B|----------------------------------------2-------|
 G|---------------------------------------2--------|
 D|--4-x--6-6-x--7-7-x--9-9-x------4-----4---------|
 A|--4-x--6-6-x--7-7-x--9-9-x------4----4----------|
 E|--2-x--4-4-x--5-5-x--7-7-x------2---2-----------|
 e|----------------------------------------------0------------0----|
 B|----------------------------------------------0------------0----|
 G|--------------------------------------------9-9------------9----|
 D|---4/6-6-x---7-7-x---9-9-x---11-11-x---x-x--9-9----7/9-9---9----|
 A|---4/6-6-x---7-7-x---9-9-x---11-11-x---x-x--7-7----7/9-9---7----|
 E|---2/4-4-x---5-5-x---7-7-x---9--9--x---x-x--0-0----5/7-7---0----|

I[C#] can[A]'t [E]sleep, c[C#]an'[A]t [E]go home
U[C#]nder[A]nea[E]th the branches of a sycamore tree
On [C#]a d[A]ar[E]kened road
W[C#]ith [A]thi[E]s key, s[C#]cra[A]tc[E]hed into the wall
I[C#] spe[A]ll [E]out your name, i[C#]t's[A] f[E]**king with my head
f[C#]**ki[A]ng [E]with my heart
[F#]As the [G#]autumn l[A]eaves b[B]egin to f[F#]all
[F#/G#]Walking down the st[A]reet where [B]you and I would [E]walk
I s[B]ee h[E]im
K[B]im[E], K[B]im[E], K[B]im[E]
[C#]I ca[A]n't[E] sleep, [C#]can[A]'t[E] let go
[C#]Unde[A]rne[E]ath my f[C#]eet[A] i[E]t's miles
[C#]Noth[A]ing[E], there'[C#]s n[A]ow[E]here to go
[C#]With[A] th[E]is key, [C#]scr[A]at[E]ched into my arm
[C#]I sp[A]ell[E] out your name, it's ringing in my head
[C#]Like[A] a [E]false alarm
[F#]As the le[G#]aves [A]begin to [B]fall and [F#]grey
[F#/G#]Walking down the st[A]reet I w[B]atched you walk a[E]way
To [B]be with hi[E]m
K[B]im[E], K[B]im[E], K[B]im[E]
[C#]Oh K[A]im![E]
[F#]Like a [G#]crater, [A]like [B]I've never s[F#]een
[F#/G#]Walking down the st[A]reets [B]we'll never walk aga[E]in
K[B]im[E], Kim[B], [E]Kim, [B]Ki[E]m
[C#]Oh K[A]im![E]

Important: The song above is NOT stored on the Chordie server. The original song is hosted at www.azchords.com. Chordie works as a search engine and provides on-the-fly formatting. Chordie does not index songs against artists'/composers' will. To remove this song please click here.

Text color:
Chord color:
Chord grids: 
Font size:    
Page size: 

A B C# E F# F#/G# G#
Rate #1 of 1 versions

Jango Player

Login - add to songbook

SHARE PAGE  



You need to log in to post comments