Guitar Tabs, Chords and Lyrics
Server problems seems to be fixed. Chordie has been experiencing problems with songs disappearing. These issues now seems to be fixed, but still verifying the fix. If you find anything strange, please email admin@chordie.com.


La Cienega Just Smiled  Ryan Adams

Standard tuning Capo 3
Intro
F G C x4
[F]Ah the [G]night, here it comes [C]again
It's [F]on with the jeans, the [G]jacket and the [C]shirt
F G C C/B Am (walk-down)
How'd I end up feeling so bad for such a little girl
And I [F]hold you close in the [G]back of my [C]mind
[F]Feels so good but [G]damn it makes me [C]hurt
And [F]I'm too scared to [G]know to how I [Am]feel a[G]bout you [F]now
La Cie[F]nega just smiles, and[G] "see ya a[C]round"
C G F x2
And I [F]hold you close in the [G]back of my [C]mind
And [F]raise my glass 'c[G]ause either [C]way I'm dead
[F]Neither of you really [G]help me to [Am]sleep [G]any[F]more
[Am]One breaks my [C]body and the [F]other breaks my soul
La Cie[F]nega just smiles [G]and waves [C]goodbye
C G F X2
If you are just one guitar, play this solo by hammering on the (D string),
during the C chord, then add on the (e sting) for the G, with pinky.
Then go right into an F chord. It sounds pretty good. But if you have a
looper or second guitar, play solo below. (lifted from version 2, thanks)
 
 e|-----------------------------------------------------------|
 B|-----------------------------------------------------------|
 G|-----------------------------------------------------------|
 D|-----------------5--------------------------5-7--7/9-10~---|
 A|---5-7--5-7--5-7---0-----0-3--5-7--5-7--5-7----------------|
 E|-----------------------3-----------------------------------|

[F]Ah the [G]night, here it comes a[C]gain
It's [F]off with the jeans, the [G]jacket and the [C]shirt
F G C C/B Am (walk-down)
How'd I end up feeling so bad for such a little girl
And I [F]hold you close in the [G]back of my [C]mind
[F]Feels so good but [G]damn it makes me [C]hurt
And [F]I'm too scared to [G]know how I [Am]feel a[G]bout you [F]now
How I [Am]feel a[G]bout you [F]now
La Ci[F]enega just smiles [G]and says, "I'll [C]see you around"
C F G (just like solo, or second guitar see below, until fadeout)
[and]  
 
 e|-----------------------|
 B|-----------------------|
 G|-----------------------| X 3
 D|-----------------5-----|
 A|---5-7--5-7--5-7---0---|
 E|-----------------------|

then
 
 e|---------------------------------------|
 B|---------------------------------------|
 G|---------------------------------------| X 3
 D|----------------------------5/7--7-5---|
 A|-----0-3-5-3--5-7--5-7--5-7------------|
 E|---3-----------------------------------|


Important: The song above is NOT stored on the Chordie server. The original song is hosted at www.azchords.com. Chordie works as a search engine and provides on-the-fly formatting. Chordie does not index songs against artists'/composers' will. To remove this song please click here.

Text color:
Chord color:
Chord grids: 
Font size:    
Page size: 

Am C F G
Rate #1 of 6 versions

Login - add to songbook

SHARE PAGE  




You need to log in to post comments