Guitar Tabs, Chords and Lyrics
Server problems seems to be fixed. Chordie has been experiencing problems with songs disappearing. These issues now seems to be fixed, but still verifying the fix. If you find anything strange, please email admin@chordie.com.


Magnolia Mountain  Ryan Adams

intro
 
 e|-----0-----------0-------0-----0-----------------------------------|
 B|-----0-----0-----0-------0-----0---------------------0-0-----------|
 G|-----9---8-----6-------4-----2---1-2-1-2/4-x---------2-1-----------|
 D|--11---9-----7-----7-6-----4---------------x-2---2---2-2--------0--|
 A|-------------------------------------------x-2h4-2-2-2-2--------2--|
 E|---------------------------------------------------0-0-0--0-2/4----|

[Bm]I want to go to M[D]agnolia Mountain
And l[A]ay my weary head d[E]own
G D riff 1
Down on the rocks on the mountain my savior made
riff 1
 
 e|-----------------------|
 B|--2-2h3-2-2------------|
 G|--2-2---2-2-------2----|
 D|--2-2h4-2-2-2-3-4---4--|
 A|-----------------------|
 E|-----------------------|

[Bm]Steady my soul and [D]ease my worry
[A]Hold me when I rattle like a h[E]ummingbird hummin'
[G]Tie me to the rocks on the m[D]ountain my savior made[A]
[C#m]Lie to m[G#m]e
DII AII
Sing me a song
[C#m]Sing me a s[G#m]ong until the m[F#]orning comes
If the m[C#m]orning c[G#m]omes, will you l[D]ie to m[A]e
Will you t[C#m]ake me to your bed will you l[G#m]ay me down
Till I'm h[F#]eavy like the rocks on the riverbed that my savior made
riff 2
 
 e|--9----9--7-7-7-7---0--0-0-0-0--------------------|
 B|--9h10-10-9-9-9-10--0--0-0-0-0--------------------|
 G|--9----9--9-9-9-9---9--8-6-4-2-----------------2--|
 D|--9h11-11-9-9-9-9---11-9-7-6-4-----------------2--|
 A|--9----9--7-7-7-7------------------------------2--|
 E|--------------------------------4-5-4-5-4-2b-2-0--|

[Bm]I want to be the bl[D]uebird singing
[A]Singing to the roses in her y[E]ard
G D riff 1
The roses in her yard her father grew for her
[Bm]It's been raining that T[D]ennessee honey
So l[A]ong I got too heavy to fl[E]y
[G]Ain't no bluebird [D]ever gets too heavy to s[A]ing
[C#m]Lie to m[G#m]e
DII AII
Sing me a song
[C#m]Sing me a s[G#m]ong until the m[F#]orning comes
If the m[C#m]orning don't c[G#m]ome, will you l[D]ie to m[A]e
Will you t[C#m]ake me to your bed will you l[G#m]ay me down
Till I'm h[F#]eavy like the rocks on the riverbed that my savior made
riff 2 x2
riff 3 x4
riff 3
 
 e|---------------------------------------------------------------|
 B|---------------------------------------------------------------|
 G|---------------------------------------------------------------|
 D|--------------------9-7p6p4---------9-------7------------------|
 A|--5-7-5-7/9-7-9/11----------7--7/11---7h8h9---------7-4h5p4-4--|
 E|--0-------------------------------------------7h8h9------------|
 e|----------2-2-0-0-0--|
 B|----------3-3-2-3-2--|
 G|----------2-2-2-2-2--|
 D|----------0-0-2-2-2--|
 A|----0---0-0-0-0-0-0--|
 E|--3---3--------------|

[Bm]We burned the cotton fields d[D]own in the valley
And [A]ended up with nothing but sc[E]ars
The sc[G]ars became the lessons that we g[D]ave to our children [A]after the war
But there ain't n[Bm]othing but the truth up on the M[D]agnolia Mountain
Where n[A]obody ever dies[E]
G D riff 1
Steady your soul and ease your worry they got a room for you
[C#m]Lie to m[G#m]e
DII AII
Like I lied to you
[C#m]Calm me d[G#m]own until the m[F#]orning comes
If the m[C#m]orning don't c[G#m]ome, l[D]ie to m[A]e
Will you t[C#m]ake me to your bed will you l[G#m]ay me down
F# riff 2
Till I'm heavy like the rocks on the riverbed that my savior made for us
riff 2 x2
 
 e|-----0---0---0---0-0-0-0-0-0-0--|
 B|-----0---0---0---0-0-0-0-0-0-0--|
 G|-----9---8---6---4-2-2-2-1-2-1--|
 D|--11---9---7---6---4-4-4-2-2-2--|
 A|-------------------------2-2-2--|
 E|-------------------------0-0-0--| 


Important: The song above is NOT stored on the Chordie server. The original song is hosted at www.azchords.com. Chordie works as a search engine and provides on-the-fly formatting. Chordie does not index songs against artists'/composers' will. To remove this song please click here.

Text color:
Chord color:
Chord grids: 
Font size:    
Page size: 

A Bm C#m D E F# G G#m
Rate #1 of 6 versions

Login - add to songbook

SHARE PAGE  



You need to log in to post comments