Guitar Tabs, Chords and Lyrics
Major upgrade!! After one year development the new version of Chordie is now online! Please give feedback.


Withering Heights  Ryan Adams

Tuning: standard
| / slide up
| \ slide down
| h hammer-on
| p pull-off
| ~ vibrato
| + harmonic
| x Mute note
 
 e|------------------------------------|
 B|-1----1-1-1-1-----------------------|
 G|-0h2--2-2-2-2---------------0-------|
 D|-3----3-3-3-3-------------2-----0---|
 A|---------------2-3-3/7-5--3---2-----|
 E|------------------------------------|
 e|------------------------------------|
 B|-1----1-----------------------------|
 G|-0h2--2-0-----------------2-2-2-0---|
 D|-3----3-------------------3-3-3-----|
 A|---------------2-3-3/7-5------------|
 E|------------------------------------|

riff 2 (this an easier way to play the main riff thats played quietly in the verse etc)
 
 e|----------|
 B|----------|
 G|----------|
 D|------2-0-|
 A|--2-3-----|
 E|----------|

F riff 2
I can be taught but I'm not learning
[F]Over and over I [G]lose
F riff 2
I make mistakes, get so sorry
[F]I can't unwind like yarn from a [G]spool
Chorus
[F]I'm a little sh[C]aky gotta learn how to [G]fight
[F]The moon shines on the boulevard [C]baby let'[G]s ride
[F]If you gotta look back, [C]don't look d[G]own
[F]Our love went cold and tur[G]ned to ice
[F]It's hard to see the ground
[C] [G] [F]  
[C] [G] [F]  
 
 e|-----------------------------------------------|
 B|-1----1-1-1-1-------------1---1-1-1------------|
 G|-0h2--2-2-2-2-------------0h2-2-2-2------------|
 D|-3----3-3-3-3-------------3---3-3-3------------|
 A|---------------2-3-3/7-5------------3-2-2-3-2--|
 E|-----------------------------------------------|
 e|--------------------------------------------|
 B|-1----1--------------------------1----------|
 G|-0h2--2-0------------------2-2-2------------|
 D|-3----3--------------------3-3-3------------|
 A|---------------2-3-3/7-5------------2-------|
 E|-------------------------------------3------|

Verse 2
F riff 2
I can go on, but I won't bore you
[F]Lucky in life, not in l[G]ove
F riff 2
I make mistakes like anybody
[F]Anyone foolish to love me that m[G]uch
Chorus
[F]I'm a little sh[C]aky gotta learn how to f[G]ight
[F]The moon shines on the boulevard [C]baby let's ri[G]de
[F]If you gotta look back, [C]don't look d[G]own
[F]Our love went cold and turned to i[G]ce
[F]It's hard to see the ground
[C] [G] [F]  
[C] [G] [F]  
[C] [G] [F]  
[C] [G] [F]  
C, G, F x4
[C] [G] [F]  
[C] [G] [F]  
[C] [G] [F]  
[C] [G] [F]  

Important: The song above is NOT stored on the Chordie server. The original song is hosted at www.azchords.com. Chordie works as a search engine and provides on-the-fly formatting. Chordie does not index songs against artists'/composers' will. To remove this song please click here.

Text color:
Chord color:
Chord grids: 
Font size:    
Page size: 

C F G
Rate #1 of 3 versions

Login - add to songbook

SHARE PAGE  



You need to log in to post comments