Guitar Tabs, Chords and Lyrics
Major upgrade!! After one year development the new version of Chordie is now online! Please give feedback.


Your Disease  Saliva

"Your Disease"
Tuning: 1/2 step down, Dropped D
(Chords used)
[D] [C] [Bb] [G]  
 
 Eb--------------------------
 Ab--------------------------
 Db--7------5------3---------
 Gb--7------5------3------5--
 Bb--5------3------1------5--
 Db--0--------------------5--

(Note that chords reflect position not overall tonality)
Intro
Riff 1
 
 Eb----------------------------------------------|
 Bb--6-6-6-6-6-6-6-6b7-(7)(7)(7)(7)(7)(7)(7)(7)--|
 Gb--0-0-0-0-0-0-0-0----0--0--0--0--0--0--0--0---|
 Db----------------------------------------------|
 Ab----------------------------------------------|
 Db----------------------------------------------| x4

(bend note up and hold)
Part A Part B
 
 Eb-------------------|-----------------------|
 Bb----------------3--|--------------------3--|
 Gb----------------2--|--------------------2--|
 Db--5h6-5-3-5-3-0-0--|--3/5-5h6-5-3-5-3-0-0--|
 Ab--5h6-5-3-5-3-0-0--|--3/5-5h6-5-3-5-3-0-0--|
 Db--5h6-5-3-5-3-0-0--|--3/5-5h6-5-3-5-3-0-0--|

Play Part A once and Part B three times
VERSES
 
 Eb----------------------|
 Bb----------------------| Repeat as many times as needed
 Gb----------------------|
 Db-0-3-0-3-5-6-6-6-5-3--|
 Ab-0-3-0-3-5-6-6-6-5-3--|
 Db-0-3-0-3-5-6-6-6-5-3--|

*-*Verse 1
In one moment I’m goin all the way
I make my poetry everyday
And I’m frozen, comin right on time
I froze my mind with that serious rhyme
And I’m open comin up inside
you know my mind has got a grand design and I'm flowin
goin all the way I make my point to be everyday, come on!
*-*Verse 2
My minds broken, I’m goin up in smoke
If you breathe my toke I’m guaranteeing you choke
And I’m chosen to testify to the masses
Wear dark glasses like the cops in Texas
All knowing its not a premonition
Kill the competition like a man on a mission
I’m blowin comin up inside
Like the Bee Gees cry I’m just stayin alive, come on!
Chorus
[D]And I wanna take you [C]down, but your soul cannot be [Bb]found
It doesn’t matter[C] much you see, cause your disease i[D]s killing me
And you know its only [C]right, cause it feels like para[Bb]dise
I know nothing is for [C]free cause your disease is killing [D]me
(Riff 1 twice over D)
(Verse 2)
Bridge
[G]So now I’m fin[A]ally goin down, can I find my[G] way back home?
Now there’s no[A] one else around, can I find my[G] way back home?
Will I ever see the [A]light? Even though I&am[G]p;#8217;m fallin
Will there ever be any [A]peace for me? Even though I&am[G]p;#8217;m falling
Will there ever be any [A]peace for me? Even though I&am[G]p;#8217;m falling
Will there ever be any [A]peace for me?
(Repeat Chorus x2)

Important: The song above is NOT stored on the Chordie server. The original song is hosted at www.azchords.com. Chordie works as a search engine and provides on-the-fly formatting. Chordie does not index songs against artists'/composers' will. To remove this song please click here.

Text color:
Chord color:
Chord grids: 
Font size:    
Page size: 

A Bb C D G
Rate #1 of 2 versions

Jango Player

Login - add to songbook

SHARE PAGE  




You need to log in to post comments