Guitar Tabs, Chords and Lyrics
Update 25:10. 13:00. Site is back up running again. Songbooks are recovered. Woring on getting search back up..


Alles Gute zum Alltag  Samuel Harfst

 
 -------------------------------------------------------------------------------
 -------------------------------------------------------------------------------

Tuning:Standart
Capo 3
Verse:
[C] [C2] [Em] [G7]  
 
 e|--0-----0-----0----3------------------------------|
 B|--3-----0-----2----0------------------------------|
 G|--2-----2-----2----0------------------------------|
 D|--0-----0-----0----0------------------------------|
 A|--1-----1-----0----0------------------------------|
 E|--3-----0-----0----3------------------------------|

Chorus:
[C3] [G2] [Em7]  
 
 e|--0-----3-----0-----------------------------------|
 B|--3-----3-----2-----------------------------------|
 G|--3-----2-----2-----------------------------------|
 D|--2-----0-----0-----------------------------------|
 A|--1-----1-----3-----------------------------------|
 E|--0-----0-----0-----------------------------------|

Bridge:
Em2 G F(bar) G(bar)
 
 e|--0-------3-------1------3------------------------|
 B|--2-------2-------3------5------------------------|
 G|--2-------0-------3------5------------------------|
 D|--0-------0-------2------4------------------------|
 A|--1-------2-------1------3------------------------|
 E|--3-------3-------1------3------------------------|

Verse:
Eine kleine Melodie
hab ich geschrieben, schenk sie dir
[C]Komm pack sie aus und [C2]nimm sie mit
Ganz egal wo[Em]hin du gehst, sie geht mit [G7]dir
Chorus:
[C3]Alles Gute zum [G2]Alltag
Ich [Em7]wuensch dir [C3]einen schoenen [G2]Tag
[C3]Alles Gute zum [G2]Alltag
[Em7]Ja mein F[C3]reund, ich wuensch dir [G2]was
Verse2:
[C]Nimm das Leben bei der [C2]Hand
grab die [Em]Träume aus dem Sand[G7]
[C]Träume hellwach,[C2] Träume gro?
lass die [Em]Hoffnung niemals los[G7]
Chorus:
[C3]Alles Gute zum [G2]Alltag
Ich [Em7]wuensch dir [C3]einen schoenen [G2]Tag
[C3]Alles Gute zum [G2]Alltag
[Em7]Ja mein F[C3]reund, ich wuensch dir [G2]was
Bridge:
F(bar) G(bar)
Komm komm komm und lass die ganzen Fragen Fragen sein
[Em2]Leb dein Leben denn jetzt zum [G]ziel und ueberhaupt
F(bar) G(bar)
Komm komm komm verschiebe all deine Sorgen
[Em2]Da da da auf [G]uebermorgen
Chorus (2 times):
[C3]Alles Gute zum [G2]Alltag
Ich [Em7]wuensch dir [C3]einen schoenen [G2]Tag
[C3]Alles Gute zum [G2]Alltag
[Em7]Ja mein F[C3]reund, ich wuensch dir [G2]was
[-End-]  
Something to add? comment
************************************
| / slide up
| \ slide down
| h hammer-on
| p pull-off
| ~ vibrato
| + harmonic
| x Mute note
| b Bend
| pb Pre-bend
| br Bend release
| pbr Pre-bend release
| brb Bend release bend
************************************

Important: The song above is NOT stored on the Chordie server. The original song is hosted at www.azchords.com. Chordie works as a search engine and provides on-the-fly formatting. Chordie does not index songs against artists'/composers' will. To remove this song please click here.

Text color:
Chord color:
Chord grids: 
Font size:    
Page size: 

C C2 C3 Em Em7 G G2 G7
Rate #1 of 3 versions

Login - add to songbook

SHARE PAGE  




You need to log in to post comments