Guitar Tabs, Chords and Lyrics
Login is temporarily disabled for some users. Do not panic. Will be back in an hour or two. DO NOT REREGISTER!!


Too Much Time Together  San Cisco

Tuning:EADGBe
INTRO
 
 e|-55--77--99--77-|
 B|-77--77--77--77-|
 G|-77--77--77--77-|
 D|----------------| x2
 A|----------------|
 E|----------------|

VERSE 1
Guitar 1 tens and twelves and fourteens
 
 e|-55--77--99--77--|55--77--99--77--|1010--1212--1414--1212--|1010--1212--1414--1212--|
 B|-77--77--77--77--|77--77--77--77--|1212--1212--1212--1212--|1212--1212--1212--1212--|
 G|-77--77--77--77--|77--77--77--77--|1212--1212--1212--1212--|1212--1212--1212--1212--|
 D|-----------------|----------------|------------------------|------------------------|
 A|-----------------|----------------|------------------------|------------------------|
 E|-----------------|----------------|------------------------|------------------------|
 e|-55--77--99--77--|55--77--99--77--|1010--1212--1414--1212--|10----------12----------|
 B|-77--77--77--77--|77--77--77--77--|1212--1212--1212--1212--|12----------12----------| let notes ring
 G|-77--77--77--77--|77--77--77--77--|1212--1212--1212--1212--|12----------12----------|
 D|-----------------|----------------|------------------------|------------------------|
 A|-----------------|----------------|------------------------|------------------------|
 E|-----------------|----------------|------------------------|------------------------|

Guitar 2 - play 2nd time
 
 e|-----------------|-----------------|------------------------|-------------------------|
 B|-----------------|-----------------|------------------------|-------------------------|
 G|-----------------|-----------------|------------------------|-------------------------|
 D|-7--9--9-11--11-9|-7--9--9-11--11-9|--12---14---14-16--16-14|--12-------14------------|
 A|9--9-------------|9--9-------------|14---14-----------------|14-----------------------|
 E|-----------------|-----------------|------------------------|-------------------------|

CHORUS
Chords - D Bm G A
Guitar 1
[D] [Bm] [G] [A]  
 
 e|-14--14--14--14--|----------------|----------------|----------------|
 B|---15--15--15--15|15--15--15--15--|----------------|----------------|
 G|-----------------|--16--16--16--16|16--16--16--16--|18--18--18--18--|
 D|-----------------|----------------|--17--17--17--17|--19--19--19--19|
 A|-----------------|----------------|----------------|----------------|
 E|-----------------|----------------|----------------|----------------|

Guitar 2 - play chords D Bm G A
VERSE 2 (Notes on e string land on the beat)
Guitar 1
 
 e|-5-5-7-7-9-9-7-7|-5-5-7-7-9-9-7-7|--10--10--12--12--14--14--12--12|--10--10--12--12--14--14--12--12|
 B|7-7-7-7-7-7-7-7-|7-7-7-7-7-7-7-7-|12--12--12--12--12--12--12--12--|12--12--12--12--12--12--12--12--|
 G|----------------|----------------|--------------------------------|--------------------------------|
 D|----------------|----------------|--------------------------------|--------------------------------|
 A|----------------|----------------|--------------------------------|--------------------------------|
 E|----------------|----------------|--------------------------------|--------------------------------|
 e|-55--77--99--77--|55--77--99--77--|1010--1212--1414--1212--|1010--1212--1414--1212|
 B|-77--77--77--77--|77--77--77--77--|1212--1212--1212--1212--|1212--1212--1212--1212|
 G|-77--77--77--77--|77--77--77--77--|1212--1212--1212--1212--|1212--1212--1212--1212|
 D|-----------------|----------------|------------------------|----------------------|
 A|-----------------|----------------|------------------------|----------------------|
 E|-----------------|----------------|------------------------|----------------------|

Guitar 2 - play 2nd time
 
 e|-----------------|-----------------|------------------------|-------------------------|
 B|-----------------|-----------------|------------------------|-------------------------|
 G|-----------------|-----------------|------------------------|-------------------------|
 D|-7--9--9-11--11-9|-7--9--9-11--11-9|--12---14---14-16--16-14|--12---14--14-16--16-14--|
 A|9--9-------------|9--9-------------|14---14-----------------|14---14------------------|
 E|-----------------|-----------------|------------------------|-------------------------|

HOOK
Guitar 1 Let notes ring
 
 e|-10--------------|9----------------|10---------------|------------------|
 B|-12--------------|10---------------|10---------------|------------------|
 G|-12--------------|11---------------|11---------------|------------------|
 D|-----------------|-----------------|-----------------|------------------|
 A|-----------------|-----------------|-----------------|------------------|
 E|-----------------|-----------------|-----------------|------------------|
 e|-10--------------|9----------------|12---------------|------------------|
 B|-12--------------|10---------------|10---------------|------------------|
 G|-12--------------|11---------------|11---------------|------------------|
 D|-----------------|-----------------|-----------------|------------------|
 A|-----------------|-----------------|-----------------|------------------|
 E|-----------------|-----------------|-----------------|------------------|

CHORUS
Chords - D Bm G A
Guitar 1
[D] [Bm] [G] [A]  
 
 e|-14--14--14--14--|----------------|----------------|----------------|
 B|---15--15--15--15|15--15--15--15--|----------------|----------------|
 G|-----------------|--16--16--16--16|16--16--16--16--|18--18--18--18--|
 D|-----------------|----------------|--17--17--17--17|--19--19--19--19| x2
 A|-----------------|----------------|----------------|----------------|
 E|-----------------|----------------|----------------|----------------|

Guitar 2 - play chords D Bm G A x2
BRIDGE
Guitar 1
 
 e|-5---7---99--77-|
 B|-7---7---77--77-|
 G|-7---7---77--77-|
 D|----------------| x4
 A|----------------|
 E|----------------|

Guitar 2
 
 e|-----------------|
 B|-----------------|
 G|-----------------|
 D|-7--9--9-11--11-9| x4
 A|9--9-------------|
 E|-----------------|

Synth solo
 
 e|------------------9--10p9------------| <---this part can also be played on the b string as |14-15p14
 B|--10----10-12---12-------10-12--14p12|
 G|11-----------------------------------|
 D|-------------------------------------| x4
 A|-------------------------------------|
 E|-------------------------------------|

VERSE 3
Guitar 1
 
 e|-55--77--99--77--|55--77--99--77--|1010--1212--1414--1212--|1010--1212--1414--1212--|
 B|-77--77--77--77--|77--77--77--77--|1212--1212--1212--1212--|1212--1212--1212--1212--|
 G|-77--77--77--77--|77--77--77--77--|1212--1212--1212--1212--|1212--1212--1212--1212--|
 D|-----------------|----------------|------------------------|------------------------|
 A|-----------------|----------------|------------------------|------------------------|
 E|-----------------|----------------|------------------------|------------------------|
 e|-55--77--99--77--|55--77--99--77--|1010--1212--1414--1212--|10----------12----------|
 B|-77--77--77--77--|77--77--77--77--|1212--1212--1212--1212--|12----------12----------| let notes ring
 G|-77--77--77--77--|77--77--77--77--|1212--1212--1212--1212--|12----------12----------|
 D|-----------------|----------------|------------------------|------------------------|
 A|-----------------|----------------|------------------------|------------------------|
 E|-----------------|----------------|------------------------|------------------------|

Guitar 2 - play 2nd time
 
 e|-----------------|-----------------|------------------------|-------------------------------|
 B|-----------------|-----------------|------------------------|-------------------------------|
 G|-----------------|-----------------|------------------------|-------------------------------|
 D|-7--9--9-11--11-9|-7--9--9-11--11-9|--12---14---14-16--16-14|--12-------14h16-16-16-16-14-12|
 A|9--9-------------|9--9-------------|14---14-----------------|14-----------------------------|
 E|-----------------|-----------------|------------------------|-------------------------------|

CHORUS
Chords - D Bm G A
Guitar 1
[D] [Bm] [G] [A]  
 
 e|-14--14--14--14--|----------------|----------------|----------------|
 B|---15--15--15--15|15--15--15--15--|----------------|----------------|
 G|-----------------|--16--16--16--16|16--16--16--16--|18--18--18--18--|
 D|-----------------|----------------|--17--17--17--17|--19--19--19--19| x2
 A|-----------------|----------------|----------------|----------------|
 E|-----------------|----------------|----------------|----------------|

Guitar 2 - play chords D Bm G A x2
OUTRO
Guitar 1
 
 e|-55--77--99--77-|
 B|-77--77--77--77-|
 G|-77--77--77--77-|
 D|----------------| x4
 A|----------------|
 E|----------------|

Guitar 2
 
 e|-----------------|
 B|-----------------|
 G|-----------------|
 D|-7--9--9-11--11-9| x4
 A|9--9-------------|
 E|-----------------|

Guitar 1 finish on
e|-55-|
B|-77-|
G|-77-|
D|----|
A|----|
E|----|

Important: The song above is NOT stored on the Chordie server. The original song is hosted at www.azchords.com. Chordie works as a search engine and provides on-the-fly formatting. Chordie does not index songs against artists'/composers' will. To remove this song please click here.

Text color:
Chord color:
Chord grids: 
Font size:    
Page size: 

A Bm D G
Rate #1 of 1 versions

Login - add to songbook

SHARE PAGE  



You need to log in to post comments