Guitar Tabs, Chords and Lyrics
Update 25:10. 13:00. Site is back up running again. Songbooks are recovered. Woring on getting search back up..


Sunset Borderline  Sandi Thom

 
 -------------------------------------------------------------------------

SUNSET BORDERLINE ?? Sandi Thom
 
 -------------------------------------------------------------------------

There are mistakes in the existing versions.
Standard tuning
INTRO
[C] [G] [Am] [F] [G]  
 
 e|-0-----0-1-3---------------------------0--------1--3--|
 B|-----1---------1-----0-1-3---------1-----3-1----1--3--|
 G|---0---------0---------------0---------------0--2--0--|
 D|-------------------0-------0-----2---2----------3--0--|
 A|-3-----------------------------0----------------3--2--|
 E|-----------------3------------------------------1--3--|

VERSE1
A s[C]imple scent of s[Am]ummer [F] stole my heart for th[G]e last dance
The [C]smell of two-stroke [G]petrol from a [Am]motorbike we [F]used to h[G]ave
Thos[C]e playing fields of c[Am]ut grass you know [F]
high school left me[G] kind of blue
Now with [C]every sweet s[G]ummer breeze I'll[Am], I'll be thinking
[F] I'll be t[G]hinking of[C] you
CHORUS
Now I'm [C]waiting for the sunset [F]borderline
'Cause[C] every sun's gotta s[Em]et with time
But I'll re[Am]member those moments for [F]evermore
C G C...
As the days where nothing had changed at all
VERSE2
...Am F G
Found a long lost picture, mm, of the car we used to run
[C]Cotton candy co[G]loured paintwork [Am]looked so faded [F]in the s[G]un
And that[C] six o'clock s[Am]unrise you[F] always used to dr[G]ive me to
[C]Guess that long lost pi[G]cture will always[Am] have me thinking
F G...
Have me thinking of you
CHORUS
...C F
Now I'm waiting for the sunset borderline
'Cause[C] every sun's gotta s[Em]et with time
But I'll re[Am]member those moments for [F]evermore
As the d[C]ays where [G]nothing had changed at a[C]ll
BRIDGE
So for [F]every little sad sweet [G]love song that's ever s[C]ung, I'll be thinking
And for [F]every lost summer's [G]day that's ever been and g[C]one, I'll be thinking
I [F]wonder if you're gonna [E7]be the t[Am]ear that f[G]ollows m[F]e
Un[Dm]til that sun is set I guess I'll always [G]be
CHORUS
[C]Waiting for the sunset [F]borderline
'Cause[C] every sun's gotta s[Em]et with time
But I'll re[Am]member those moments for [F]evermore
C G C...
As the days where nothing had changed at all
VERSE3
...Am F G
I tuned into the radio, flicking through the stations one by one
[C]Tried to listen [G]through the rain, [Am]humming those melo[F]dies al[G]one
And I[C] remember how you t[Am]old me that [F]Lennon & McCartney
always [G]pulled you through
C G Am F G C...
So as the music plays on I, I'll be thinking, I'll be thinking of you.
OUTRO
...C G Am F G
 
 e|-0-----0-1-3---------------------------0--------1--3--0---|
 B|-----1---------1-----0-1-3---------1-----3-1----1--3--1---|
 G|---0---------0---------------0---------------0--2--0--0---|
 D|-------------------0-------0-----2---2----------3--0--2---|
 A|-3-----------------------------0----------------3--2--3---|
 E|-----------------3------------------------------1--3--x---|

=========================================================================
Comment, rate, appreciate!

Important: The song above is NOT stored on the Chordie server. The original song is hosted at www.azchords.com. Chordie works as a search engine and provides on-the-fly formatting. Chordie does not index songs against artists'/composers' will. To remove this song please click here.

Text color:
Chord color:
Chord grids: 
Font size:    
Page size: 

Am C Dm E7 Em F G
Rate #1 of 7 versions

Login - add to songbook

SHARE PAGE  



You need to log in to post comments