Guitar Tabs, Chords and Lyrics
Server problems seems to be fixed. Chordie has been experiencing problems with songs disappearing. These issues now seems to be fixed, but still verifying the fix. If you find anything strange, please email admin@chordie.com.


Addicted  Saving Abel

I keep hearing this song and I see the tabs but I thought it would be nice to put down
chords as well .... these are never really used but if you feel like singing and playing,
sounds good and is much easier.
Plus, if you want to learn to play the song, the chords give the notes a lot more meaning
NOTES:1) it is hard to tell which is correct, but the chorus either ends with Bb,C
or a repeat of F,G
I have written what I think sounds correct but if you disagree please comment
2)If you are playing electric, use Drop D and power chords
If you are using Acoustic (like I do), play open chords
3) Strumming: Each chord goes quarter beat, eighth beat, two sixteenth beats
And the ending chords of Bb&C or F&G go eighth beat, two sixtheenth beats
As you feel the beat, you’ll understand what I mean… honestly you could just strum each
you want and it still sounds ok
4) There are the actual tabs in some sections; if you want to mix it up between tab and
it gives the song more diversity. Otherwise, just skip the solos and riffs
Intro:
 
 e-------1-P-0-----------1-P-0----------1-P-0--------------------------|
 b-------------3---------------3--------------3-------3-------5--------|
 g----2---------------0---------------0--------------------------------|
 d--0-----------------------------------------------3-------5----------|
 a------------------3--------------2----------------1-------3----------|
 e---------------------------------------------------------------------|

Verse 1:
I'm so add[Dm]icted to
All the thi[C]ngs you do
When your going d[G]own on me
Bb(barr) C (barr)
In between the sheets
All the sou[Dm]nds you make
With every b[C]reath you take
Its unlike an[G]ything
Bb C (barr)
when you're lov-ing me
Riff:
 
 e-----------------------10----------------------------------------------|
 b----------------6--------------------------------------8---------------|
 g----------7--------------------------------------0---------------------|
 d----0------------------------------------8/10--------------------------|
 a-----------------------------------------------------------------------|
 e ----------------------------------------------------------------------|

Verse 2:
[Dm]oh girl lets take it s[C]low
so as for y[Dm]ou, well you know wh[C]ere to go
i want to ta[Dm]ke my love and ha[C]te you till the end[Bb] [C] [D]
Pre-Chorus: (quicker strum)
[D]its not lik[F]e you to tu[G]rn away[D]
[D] [F] [G] [D]  
[D]it's not li[F]ke me to wa[G]lk away[D] [F] [G]
Chorus:
I'm so ad[Dm]dicted to
All the thi[C]ngs you do
When your going d[G]own on me
F(barr) G(barr)
In between the sheets
All the sou[Dm]nds you make
With every b[C]reath you take
Its unlike an[G]ything
F(barr) G(barr)
when you're lov-ing me ... yeah
 
 e---------------------------------------------------------------------------|
 b---------------------------------------------------------------------------|
 g---12^ 10-----7-h-9--7—9/10---9---5----7--7/9--7---5--4------------11/-----|
 d---------------------------------------------------------5--7--------------|
 a-------------------------------------------------------------------9-/-----|
 d---------------------------------------------------------------------------|
 e---D-------------------------------------------------------------------|
 b---C-------------------------------------------------------------------|
 g---H---------11--11---------------------------------------------12-----|
 d---O---------------------12---12-----10----10--------10-----12------12-|x2
 a---R---------------------------------------------10--------------------|
 d---D-------------------------------------------------------------------|

Verse 3:
[Dm]i know when it's ge[C]tting rough
all the t[Dm]imes we spend
when we t[C]ry to make
this love something be[Dm]tter than
C Bb C(barr) D(barr)
just making love again
Pre-Chorus:
[D]its not lik[F]e you to tu[G]rn away[D]
[D] [F] [G] [D]  
[D]just when I th[F]ink I can w[G]alk away[D]
Chorus:
I'm so ad[Dm]dicted to
All the thi[C]ngs you do
When your going d[G]own on me
F(barr) G(barr)
In between the sheets
All the sou[Dm]nds you make
With every b[C]reath you take
G F(barr) G(barr)
Its unlike anythinggggggggggggggg
i'm so add[Dm]icted to, the th[C]ings you do
G F(barr) G(barr)
when your going down on me
all the so[Dm]unds you make, with every b[C]reath you take
G F(barr)G(barr)
its unlike anything when you're loving me
 
 e------------------------------------------------------------------------|
 b------------------------------------------------------------------------|
 g—7^(bend to 8,hold then release)--7-------7----9----9/10----9----7------|
 d------------------------------------------------------------------------|
 a------------------------------------------------------------------------|
 d------------------------------------------------------------------------|

when you're loving me
 
 e---------------------------------------------------------------------------|
 b---------------------------------------------------------------------------|
 g—7^(same above)--7------7----9----9/10-----10/12----9-----9h10---5---7-----|
 d---------------------------------------------------------------------------|
 a---------------------------------------------------------------------------|
 d---------------------------------------------------------------------------|

While 7 rings, jump to bridge
Bridge
 
 e------------------------------------0-----1-p-0----------------------|
 b------------------------------3--------------------------------------|
 g--------------0--------0------2-------2------------------------------|
 d------------2--------0--------0--------------------------------------|
 a--0---2---3--------2-------------------------------------------------|
 d---------------------------------------------------------------------|
 e------------------------------------------------------|
 b------------------------------------------------------|
 g-------------------------0-------------0--------------|
 d---------------------3--------------5-----------------|
 a-------0---------1--------------3------------3/5------|
 d--3---------------------------------------------------|

(Soft) Dm
i can not make it through
all the thi[C]ngs you do
G Bb C (barr)
there’s just got to be more to you and me
Riff (or just repeat chords with longer emphasis on Bb and C)
 
 e------------------------------------------------------------------------|
 b------------------------------------------------------------------------|
 g---9^(half bend)-7---7h9--10-10---10---10--9----------------------------|
 d------------------------------------------------------------------------|
 a-----------------------7--8---8----8----8--7----------------------------|
 d------------------------------------------------------------------------|

I'm so ad[Dm]dicted to
All the thi[C]ngs you do
When your going d[G]own on me
F(barr) G(barr)
In between the sheets
All the sou[Dm]nds you make
With every b[C]reath you take
Its unlike an[G]ything
F(barr)G(barr)
Its unlike anything
i'm so add[Dm]icted to, all th[C]e things you do
when your going d[G]own on me[F]
all the s[Dm]ounds you make, with every [C]breath you take
G F(barr)
its unlike anythingggggggg
I’m so [F]addicted[G] to y[D]ou …[F] [G] [D]
F G D F G D(ring)
Addicted to you

Important: The song above is NOT stored on the Chordie server. The original song is hosted at www.azchords.com. Chordie works as a search engine and provides on-the-fly formatting. Chordie does not index songs against artists'/composers' will. To remove this song please click here.

Text color:
Chord color:
Chord grids: 
Font size:    
Page size: 

Bb C D Dm F G
Rate #1 of 1 versions

Jango Player

Login - add to songbook

SHARE PAGE  



You need to log in to post comments