Guitar Tabs, Chords and Lyrics
Server problems seems to be fixed. Chordie has been experiencing problems with songs disappearing. These issues now seems to be fixed, but still verifying the fix. If you find anything strange, please email admin@chordie.com.


Zauber der Nacht  Schandmaul

[Bm] [A#Dim] 
 
 ||--2-----------2-----------------0-----------------|
 ||-----3-----3-----3-----------2-----2--------------|
 ||--------4-----------4-----0-----------3-----0-----|
 ||-----------------------------------------4--------|
 ||-----------------------1--------------------------|
 ||--------------------------------------------------|

[A] [E/G#]  
 
 |--0-----------0-----------------------------------||
 |-----2-----2-----2-----0-----------5--------------||
 |--------2-----------2-----------4-----4-----------||
 |-----------------------------6-----------6-----6--|| x 2
 |--------------------------------------------------||
 |--------------------------4-----------------7-----||

Geh bei Vollmond..
[D] [A]  
 
 |-----------2p0--------------------------------|
 |--------3-------3-----0-----------2p0---------|
 |-----2-------------2-----------2-------2------|
 |--0-------------------------2-------------2---|
 |-------------------------0--------------------|
 |----------------------------------------------|

[Bm] [D] [F#m] 
 
 |----------------------------------2--2--------|
 |-----------2h3p2----------------3-------2-----|
 |--------4---------4-----0-----2---------------|
 |-----4---------------4-----0------------------|
 |--2-------------------------------------------|
 |----------------------------------------------|

[G]  
 
 |----------------------------------------------|
 |-----------0-----------------------2p0--------|
 |--------0-----0-----------------2-------2-----|
 |-----0-----------0-----0-----2-------------2--|
 |--------------------2-----0-------------------|
 |--3-------------------------------------------|

[Bm] [F#m] [Bm]  
 
 |--------------------------|
 |--------3--2-----------3--|
 |------4-------2------4----|
 |----4--------------4------|
 |--2--------------2--------|
 |--------------------------|

Schon wie eine Rose...
[D5] [A]  
 
 |--5-----------5-----------5-----------5-----------|
 |-----3-----3-----3-----3-----2-----2-----2-----0--|
 |--------2-----------2-----------2-----------2-----|
 |--------------------------------------------------|
 |--------------------------------------------------|
 |--------------------------------------------------|

[Bm] [F#m]  
 
 |--------------------------------------2-----------|
 |-----------2h3p2---------------------2------------|
 |--------4---------4-----2----------2------2-------|
 |-----4---------------4-----------4----------------|
 |--2---------------------------4-------------------|
 |---------------------------2----------------------|

[G] [A]  
 
 |-------------------------------------------------|
 |-----------0-----------------------2-------------|
 |--------0-----0-----------------2-----2----------|
 |-----0-----------0-----0-----2-----------2-------|
 |--------------------2-----0-----------------0----|
 |--3----------------------------------------------|

[Bm] [F#m] [Bm]  
 
 |---------------------------|
 |--------3--2------------3--|
 |------4-------2-------4----|
 |----4---------------4------|
 |--2--------------2---------|
 |---------------------------|

Oh mein Zauber...
[F#m] [E]  
 
 ||-----------2-----------------------0-------------|
 ||--------2-----2-----------------0-----0----------|
 ||-----2-----------2-----2-----1-----------1-------|
 ||--------------------4-------------------------2--|
 ||--------------------------------------------2----|
 ||--2-----------------------0----------------------|

[A] [B]  
 
 |-----------0-------------------------------------||
 |--------------2-----2--------------4-------------||
 |--------2--------2-----2--------4-----4----------||
 |-----2-----------------------4-----------4-------|| x 3
 |--0-----------------------2-----------------2----||
 |-------------------------------------------------||

F#m E(C-shape)
 
 |-------2------------4----------|
 |-------2------------5----------|
 |-------2------------4----------|
 |--------------------6----------|
 |-------------------------------|
 |-------2-----------------------|

[F] [E]  
 
 |--9-------7--|
 |--10------9--|
 |--11------9--|
 |--11------9--|
 |--9-------7--|
 |-------------|

Instrumental part, same as intro
[Bm] [A#Dim]  
 
 ||--2-----------2-----------------0-----------------|
 ||-----3-----3-----3-----------2-----2--------------|
 ||--------4-----------4-----0-----------3-----0-----|
 ||-----------------------------------------4--------|
 ||-----------------------1--------------------------|
 ||--------------------------------------------------|

[A] [E/G#]  
 
 |--0-----------0-----------------------------------||
 |-----2-----2-----2-----0-----------5--------------||
 |--------2-----------2-----------4-----4-----------||
 |-----------------------------6-----------6-----6--|| x 2
 |--------------------------------------------------||
 |--------------------------4-----------------7-----||

Pfluck des Morgens eine Lilie...
[D] [A]  
 
 |-----------2p0--------------------------------|
 |--------3-------3-----0-----------2p0---------|
 |-----2-------------2-----------2-------2------|
 |--0-------------------------2-------------2---|
 |-------------------------0--------------------|
 |----------------------------------------------|

[Bm] [D] [F#m] 
 
 |----------------------------------2--2--------|
 |-----------2h3p2----------------3-------2-----|
 |--------4---------4-----0-----2---------------|
 |-----4---------------4-----0------------------|
 |--2-------------------------------------------|
 |----------------------------------------------|

[G]  
 
 |----------------------------------------------|
 |-----------0-----------------------2p0--------|
 |--------0-----0-----------------2-------2-----|
 |-----0-----------0-----0-----2-------------2--|
 |--------------------2-----0-------------------|
 |--3-------------------------------------------|

[Bm] [F#m] [Bm]  
 
 |--------------------------|
 |--------3--2-----------3--|
 |------4-------2------4----|
 |----4--------------4------|
 |--2--------------2--------|
 |--------------------------|

Zart wie eine Lilie bist Du...
[D5] [A]  
 
 |--5-----------5-----------5-----------5-----------|
 |-----3-----3-----3-----3-----2-----2-----2-----0--|
 |--------2-----------2-----------2-----------2-----|
 |--------------------------------------------------|
 |--------------------------------------------------|
 |--------------------------------------------------|

[Bm] [F#m]  
 
 |--------------------------------------2-----------|
 |-----------2h3p2---------------------2------------|
 |--------4---------4-----2----------2------2-------|
 |-----4---------------4-----------4----------------|
 |--2---------------------------4-------------------|
 |---------------------------2----------------------|

[G] [A]  
 
 |-------------------------------------------------|
 |-----------0-----------------------2-------------|
 |--------0-----0-----------------2-----2----------|
 |-----0-----------0-----0-----2-----------2-------|
 |--------------------2-----0-----------------0----|
 |--3----------------------------------------------|

[Bm] [F#m] [Bm]  
 
 |---------------------------|
 |--------3--2------------3--|
 |------4-------2-------4----|
 |----4---------------4------|
 |--2--------------2---------|
 |---------------------------|

Oh mein Zauber...
[F#m] [E]  
 
 ||-----------2-----------------------0-------------|
 ||--------2-----2-----------------0-----0----------|
 ||-----2-----------2-----2-----1-----------1-------|
 ||--------------------4-------------------------2--|
 ||--------------------------------------------2----|
 ||--2-----------------------0----------------------|

[A] [B]  
 
 |-----------0-------------------------------------||
 |--------------2-----2--------------4-------------||
 |--------2--------2-----2--------4-----4----------||
 |-----2-----------------------4-----------4-------|| x 3
 |--0-----------------------2-----------------2----||
 |-------------------------------------------------||

F#m E(C-shape)
 
 |-------2------------4----------|
 |-------2------------5----------|
 |-------2------------4----------|
 |--------------------6----------|
 |-------------------------------|
 |-------2-----------------------|

[F] [E]  
 
 |--9-------7--|
 |--10------9--|
 |--11------9--|
 |--11------9--|
 |--9-------7--|
 |-------------|

Instrumental part, same as intro. A small twist on
the A-chord the second repeat with a hammer-on.
[Bm] [A#Dim]  
 
 |--2-----------2-----------------0-----------------|
 |-----3-----3-----3-----------2-----2--------------|
 |--------4-----------4-----0-----------3-----0-----|
 |-----------------------------------------4--------|
 |-----------------------1--------------------------|
 |--------------------------------------------------|

[A] [E/G#]  
 
 |--0-----------0-----------------------------------|
 |-----2-----2-----2-----0-----------5--------------|
 |--------2-----------2-----------4-----4-----------|
 |-----------------------------6-----------6-----6--|
 |--------------------------------------------------|
 |--------------------------4-----------------7-----|

[Bm] [A#Dim]  
 
 |--2-----------2-----------------0-----------------|
 |-----3-----3-----3-----------2-----2--------------|
 |--------4-----------4-----0-----------3-----0-----|
 |-----------------------------------------4--------|
 |-----------------------1--------------------------|
 |--------------------------------------------------|

[A] [E/G#]  
 
 |--0-----------0-----------------------------------|
 |-----2----0h2-----2-----0-----------5-------------|
 |--------2-----------2-----------4-----4-----------|
 |-----------------------------6-----------6-----6--|
 |--------------------------------------------------|
 |--------------------------4-----------------7-----|

Warte auf den Ruf...
[D5] [A]  
 
 |--5-----------5-----------5-----------5-----------|
 |-----3-----3-----3-----0-----2-----2-----2-----0--|
 |--------2-----------2-----------2-----------2-----|
 |--------------------------------------------------|
 |--------------------------------------------------|
 |--------------------------------------------------|

[Bm] [D] [F#m] 
 
 |----------------------------------2--2------------|
 |-----------2h3p2----------------3-----------------|
 |--------4---------4-----0-----2-------------------|
 |-----4---------------4-----0----------------------|
 |--2-------------------------------------4---------|
 |--------------------------------------------------|

[G] [A]  
 
 |-------------------------------------------------|
 |-----------0-----------------------2-------------|
 |--------0-----0-----------------2-----4p2--------|
 |-----0-----------0-----0-----2-------------2-----|
 |--------------------2-----0-------------------0--|
 |--3----------------------------------------------|

[Bm] [F#m] [Bm]  
 
 |---------------------------|
 |--------3--2------------3--|
 |------4----2----------4----|
 |----4---------------4------|
 |--2-----------4---2--------|
 |---------------------------|

Leicht wie eine Feder...
[Dm] [C]  
 
 |-----------1p0-----------------------------------|
 |--------3-------3-----------------5--------------|
 |-----2-------------2-----------5-----5--------0--|
 |--0-------------------0-----5-----------5--2-----|
 |-------------------------3-----------------------|
 |-------------------------------------------------|

[F] [G] [A]  
 
 |-----------1------------------3--0--|
 |--------1-----1---------------3--2--|
 |-----2-----------2-----0---------2--|
 |--3-----------------3------------2--|
 |---------------------------------0--|
 |---------------------------3--------|

[Dm] [C]  
 
 |-----------1p0-----------------------------------|
 |--------3-------3-----------------5--------------|
 |-----2-------------2-----------5-----5-----------|
 |--0-------------------0-----5-----------5-----2--|
 |-------------------------3-----------------0-----|
 |-------------------------------------------------|

[A#] [Dm]  
 
 |-------------------------------------1-----------|
 |--------3-------------------------3-----3--------|
 |-----------3--------0----------2-----------2-----|
 |-----3-----------2-----2--0----------------------|
 |--1-----------3----------------------------------|
 |-------------------------------------------------|

Oh mein Zauber...
[F#m] [E]  
 
 ||-----------2-----------------------0-------------|
 ||--------2-----2-----------------0-----0----------|
 ||-----2-----------2-----2-----1-----------1-------|
 ||--------------------4-------------------------2--|
 ||--------------------------------------------2----|
 ||--2-----------------------0----------------------|

[A] [B]  
 
 |-----------0-------------------------------------||
 |--------------2-----2--------------4-------------||
 |--------2--------2-----2--------4-----4----------||
 |-----2-----------------------4-----------4-------|| x 3
 |--0-----------------------2-----------------2----||
 |-------------------------------------------------||

F#m E(C-shape)
 
 |-------2------------4----------|
 |-------2------------5----------|
 |-------2------------4----------|
 |--------------------6----------|
 |-------------------------------|
 |-------2-----------------------|

[F] [E] [F] [E]  
 
 |--9-------7--------9------7------|
 |--10------9-------10------9------|
 |--11------9-------11------9------|
 |--11------9-------11------9------|
 |--9-------7-------9-------7------|
 |---------------------------------|

[F#m]  
 
 |--------------2-----------------|
 |-----------2-----2--------------|
 |--------2-----------2-----------|
 |-----4-----------------4--------|
 |--------------------------4-----|
 |--2--------------------------2--|


Important: The song above is NOT stored on the Chordie server. The original song is hosted at www.azchords.com. Chordie works as a search engine and provides on-the-fly formatting. Chordie does not index songs against artists'/composers' will. To remove this song please click here.

Text color:
Chord color:
Chord grids: 
Font size:    
Page size: 

A A# B Bm C D D5 Dm E E/G# F F#m G
Rate #1 of 3 versions

Login - add to songbook

SHARE PAGE  



You need to log in to post comments