Guitar Tabs, Chords and Lyrics
Update 25:10. 13:00. Site is back up running again. Songbooks are recovered. Woring on getting search back up..


Julie Paradise  Screaming Trees

Guitar 1 riff 1a
 
 e|--------------------------------------------------------------------------------------||
 B|----4--------------------4---------------------------4-------------4-------------4----||
 G|----4------4------4------4------4------4------4------4------4------4------4------4----||
 D|-4-------4------4------4------4------4------4------4------4------4------4------4------||
 A|-2-----2------2------2------2------2------2------2------2------2------2------2--------||
 E|--------------------------------------------------------------------------------------||

Now just repeat riff 1b
Guitar 1 riff 1b
 
 e|-----------------------------||
 B|--------------------------4--||
 G|-----4------4------4------4--||
 D|---4------4------4------4----||
 A|-2------2------2------2------||
 E|-----------------------------||

Guitar 2 riff 2 (0:40, 0:45, 1:08, 1:12, 1:38, 1:43, 2:39, 2:44, 3:50, 3:55)
[E] [B]  
 
 e|-0-------------||
 B|-0------4------||
 G|-1------4------||
 D|-2------4------||
 A|-2------2------||
 E|-0-------------||

As soon as guitar 2 plays the B chord guitar 1 plays riff 1b again
Guitar 2 riff 3 (1:19)
[A] [B]  
 
 e|--0--0--0-------|---------------||
 B|--2--2--2--4----|---------------||
 G|--2--2--2--4----|---------------||
 D|--2--2--2‚??-4‚??-2x|-----0--2h4h2--||
 A|--0--0--0--2----|--2------------||
 E|----------------|---------------||

Now play B chords and the other chord you hear in between is an A
Bridge (1:49 and 2:01). Fill up with B chords and A chords
 
 e|--------------------||
 B|--------------------||
 G|--7----9----12---14-||
 D|--7----9----12---14-||
 A|--5----7----10---12-||
 E|--------------------||

2nd quiet part: just play the first, it's a little different but if you really want to
it correctly listen to the song and you'll find out
Solo (2:52)
Guitar 1
 
 e|-----------------------------------------------------------------------||
 B|----------------------12-------12--------------12‚??12b14---(14)r--12----||
 G|--11p9-----11p9-7v-------14p11----14p11v----14----------------------14v||
 D|-------9v--------------------------------------------------------------||
 A|-----------------------------------------------------------------------||
 E|-----------------------------------------------------------------------||
 e|-----------------------------------------------------------||
 B|--------------------------10--12‚??12h10---------------------||
 G|-----7-9b---11-9--11-9-11--------------11--11p9-7‚??11p9-----||
 D|---9--------------------------------------------------9v---||
 A|-----------------------------------------------------------||
 E|-----------------------------------------------------------||
 e|----------------------------------------------------------||
 B|------------12p10-----10-12-10-12-10----------------------||
 G|---7-9-9b---------11-----------------11-9-11-9‚??11v--------||
 D|----------------------------------------------------------||
 A|----------------------------------------------------------||
 E|----------------------------------------------------------||

Guitar 2 with weird effect 8x
 
 e|--0--0--0-----||
 B|--2--2--2--4--||
 G|--2--2--2--4--||
 D|--2--2--2--4--||
 A|--0--0--0--2--||
 E|--------------||

Bridge
Riff 3
Lots of B‚??s and A‚??s
Solo 3 (4:04)
Guitar 1
 
 e|--------------------------------------------------------------------------||
 B|------------------------------------------------------12-------12---------||
 G|---------------------7-9-7-----------7-9-9b11r--7--------14p11----14p11v--||
 D|----0‚??-2h4h2-------9-------7---9v--9--------------9v----------------------||
 A|-2-----------2---------------9--------------------------------------------||
 E|--------------------------------------------------------------------------||
 e|-------12----12-12b14----12b14r--------------------------------------||
 B|-12-15----15--------------------15-12----12v---12--------------------||
 G|--------------------------------------14----------14-11----------14v-||
 D|--------------------------------------------------------14-12-14-----||
 A|---------------------------------------------------------------------||
 E|---------------------------------------------------------------------||
 e|----------------------------------------------------------------------------||
 B|----------------------------15-17-17b19-17b19-‚??17b19‚??17b19r17--12-----12v---||
 G|--14h16p14h16p14h16p14h16v----------------------------------------14--------||
 D|----------------------------------------------------------------------------||
 A|----------------------------------------------------------------------------||
 E|----------------------------------------------------------------------------||
 e|--------------------------------------------------------------------||
 B|--------------------------------------------------------------------||
 G|-----------------------9p7---7--9p7----9p7----9b11-9b-9b-9b-9br-----||
 D|-9--7--4--2--4--7--9-------9--------9------9--------------------9---||
 A|-9--7--4--2--4--7--9------------------------------------------------||
 E|--------------------------------------------------------------------||

Guitar 2 plays the same thing as in solo 1 but keeps on going till the end
Sorry if something‚??s weird or not understandable

Important: The song above is NOT stored on the Chordie server. The original song is hosted at www.azchords.com. Chordie works as a search engine and provides on-the-fly formatting. Chordie does not index songs against artists'/composers' will. To remove this song please click here.

Text color:
Chord color:
Chord grids: 
Font size:    
Page size: 

A B E
Rate #2 of 2 versions

Jango Player

Login - add to songbook

SHARE PAGE  




You need to log in to post comments