Guitar Tabs, Chords and Lyrics
Major upgrade!! After one year development the new version of Chordie is now online! Please give feedback.


I Can See Clearly  Screeching Weasel

 


"I Can See Clearly"
performed by Screeching Weasel
written by someone else
***
["I Can See Clearly"] 
Lead riff:
 
 E-------------------------------------------------------------------|
 B--7-6-6-7-6-6-7-6-7-6-6-7-6-6-7-6-7-6-6-7-6-6-7-6-7-6-6-7-6-6-7-6--|
 G--6-6-6-6-6-6-6-6-6-6-6-6-6-6-6-6-6-6-6-6-6-6-6-6-6-6-6-6-6-6-6-6--|
 D-------------------------------------------------------------------|
 A-------------------------------------------------------------------|
 E-------------------------------------------------------------------|

[ C# / B / F# ] x2 (with lead riff)
[Verse] 
[C#] I can see [F#]clearly now the [C#]rain is gone
I can see [F#]all obstacles [G#]in my way
[C#] Gone are the [F#]dark clouds that [C#]had me blind
It's gonna be a [B]bright, [F#]bright sunshiney [C#]day
I think I can [F#]make it now the [C#]rain is gone
All of the [F#]bad feelings have [G#]disappeared
[C#] Here is the [F#]rainbow I've been [C#]praying for
It's gonna be a [B]bright, [F#]bright sunshiney [C#]day
[ C# / B / F# ] x2 (with lead riff)
[Next, one guitar plays the solo while the other continues with the lead
riff]
[Repeat Verse] 
It's gonna be a [B]bright, [F#]bright sunshiney [C#]day
[B]Day-[F#]ay-a-[C#]ay, the sunshiney
[B]Day-[F#]ay-a-[C#]ay, the sunshiney
[Play until fade out] 
***
[Solo] 
 
 E-----6-7-9-7-6-----9---7-6------|
 B--6------------8-6---------8-6--|
 G--------------------------------|
 D--------------------------------|
 A--------------------------------|
 E--------------------------------|

and repeat three times

Important: The song above is NOT stored on the Chordie server. The original song is hosted at www.azchords.com. Chordie works as a search engine and provides on-the-fly formatting. Chordie does not index songs against artists'/composers' will. To remove this song please click here.

Text color:
Chord color:
Chord grids: 
Font size:    
Page size: 

B C# F# G#
Rate #1 of 6 versions

Login - add to songbook

SHARE PAGE  




You need to log in to post comments