Guitar Tabs, Chords and Lyrics
Server problems seems to be fixed. Chordie has been experiencing problems with songs disappearing. These issues now seems to be fixed, but still verifying the fix. If you find anything strange, please email admin@chordie.com.


Supermarket Fantasy  Screeching Weasel

"Supermarket Fantasy"
performed by Screeching Weasel
written by Ben Weasel
(C) 1988,1992 Low Budget Productions
[Notes] 
* to play more accurately, tune down one half-step
***
["Supermarket Fantasy"] 
[Play verse (A C# F# E) twice] 
[Verse] 
[A] Through the automatic [C#]doors, my shopping cart ran into [F#]hers
Our eyes met for a [E]second then she turned away
[A] After just a little [C#]while went into the canned goods [F#]aisle
And she was just [E]standing there smiling
[Cborus] 
[D] I was hoping she'd [A]look at me
But [D]she was checking [A]out the lima [D]beans
And artichokes, my [A]heart was broke in [E]pieces
By my supermarket fantasy
[Verse] 
Didn't want to seem obsessed, I checked Farina off my list
But I couldn't keep my mind off those perfect lips
Saw her start to walk my way, thought everything would be okay
And then I ran into the Cocoa Puffs display
[Cborus] 
Hurried to the checkout line
Wishing I could push back time
I looked around and she was right behind me
[Solo over verse and cborus] 
[Solo] 
 
 E-----------9-10-9----------------9-10-9-------10-9----------------9--|
 B--10-10-12--------12-10-10-10-12--------12-10------12-10----10-12----|
 G---------------------------------------------------------11----------|
 D---------------------------------------------------------------------|
 A---------------------------------------------------------------------|
 E---------------------------------------------------------------------|
 E--10-9-------10-9----------------9-10-9----------------9-10-9--------|
 B-------12-10------12-10-10-10-12--------12-10-10-10-12--------12-10--|
 G---------------------------------------------------------------------|
 D---------------------------------------------------------------------|
 A---------------------------------------------------------------------|
 E---------------------------------------------------------------------|
 E--10-9-----------------9-10-9-------10-9-----------------------------|
 B-------12-10----10-12---------12-10------12-10-10--10-10-10-10-10-10-|
 G-------------11------------------------------------------------------|
 D---------------------------------------------------------------------|
 A---------------------------------------------------------------------|
 E---------------------------------------------------------------------|
 E---------------------------------------------------------------------|
 B--9-7-5--10--10-10-10-10-10-10-9-7-5--10--10-10-10-10-10-10--10--10--|
 G---------------------------------------------------------------------|
 D---------------------------------------------------------------------|
 A---------------------------------------------------------------------|
 E---------------------------------------------------------------------|
 E-------------------------------------------------------|
 B--10-10-10-10-10--12--12-12-12-12-12-12--12-10-9-7-5---|
 G-------------------------------------------------------|
 D-------------------------------------------------------|
 A-------------------------------------------------------|
 E-------------------------------------------------------|

[Verse] 
Wanna clip your coupons, girl, wanna squeeze your Charmin, too
I wanna be your grocery bagger forever
We'll go shopping every night up and down the empty aisles
And I'll always make sure your melons are ripe
[Cborus] 
But I can't get up the nerve
I could have the best buys in the world
But I'll never share a shopping cart with her
My supermarket fantasy
[End on A] 

Important: The song above is NOT stored on the Chordie server. The original song is hosted at www.azchords.com. Chordie works as a search engine and provides on-the-fly formatting. Chordie does not index songs against artists'/composers' will. To remove this song please click here.

Text color:
Chord color:
Chord grids: 
Font size:    
Page size: 

A C# D E F#
Rate #1 of 5 versions

Login - add to songbook

SHARE PAGE  



You need to log in to post comments