Guitar Tabs, Chords and Lyrics
Server problems seems to be fixed. Chordie has been experiencing problems with songs disappearing. These issues now seems to be fixed, but still verifying the fix. If you find anything strange, please email admin@chordie.com.


Ich muss immer an dich denken  SDP

<i></i>Inro, Strophen, und Outro:(Hall)
[Am] [G] [F] [F] [G]  
 
 e|-----------------|-----------------|-----------------|-----------------|
 B|-------1---------|-----------------|-----------------|-----------------|
 G|-----2---2-------|-------4---------|-------2---------|-------2---------|
 D|---2-------2---2-|-----5---5-------|-----3---3-------|-----3---3-------|
 A|-0-----------0---|---5-------5---5-|---3-------3---3-|---3-------3---5-|
 E|-----------------|-3-----------3---|-1-----------1---|-1-----------3---|

Refrain:(Verzerrer)
ver[A5]r├?┬╝ckt... [G5]...heute......Ich dr[F5]eh durch ...neb[F5]en......legs[G5]t
 
 e|------------------------------X-X-X-X----------------------------------|
 B|------------------------------X-X-X-X----------------------------------|
 G|--2---2---2---2---------------X-X-X-X----------------------------------|
 D|--2---2---2---2---5---5---5---X-X-X-X-3---3---3--------3---3---3---5---|
 A|--0---0---0---0---5---5---5---X-X-X-X-3---3---3---3-3--3---3---3---5---|
 E|------------------3---3---3---X-X-X-X-1---1---1---1-1--1---1---1---3---|

p.m..|
...[A5]immer ...[G5]egal ...ich hoffe [F5]du.. ..wenn dich [F5]irgendwer
 
 e|------------------------------X-X-X-X----------------------------------|
 B|------------------------------X-X-X-X----------------------------------|
 G|--2---2---2---2---------------X-X-X-X----------------------------------|
 D|--2---2---2---2---5---5---5---X-X-X-X-3----------------3---------------|
 A|--0---0---0---0---5---5---5---X-X-X-X-3-----------3-3--3---------------|
 E|------------------3---3---3---X-X-X-X-1-----------1-1--1---------------|

p.m..|
1.Strophe:
[Am]Ich red mir ein es w├?┬Ąr [G]okay,
es tut schon gar nicht mehr so w[F]eh,
es ist okay...
es [G]ist okay...
[Am]Ich zieh n├?┬Ąchtelang durch di[G]e Bars, mit den Jungs und hab mei[F]n' Spa├?┼Ş,
es ist okay...
es [G]ist okay...
[Am]Wir k├?┬Ânnen doch Freunde bleiben, hast du[G] gesagt und ich meinte nur ge[F]ht klar,
is schon okay...
U[G]nd ich fahre n[Am]achts, hellwach, allein durch die Stra├[G]?┼Şen,
seitdem du weg bist, kann ich nicht schlaf[F]en...
N.C.
Nichts ist okay,
gar nichts okay!
Refrain:
Ich werd ver[Am]r├?┬╝ckt bei dem Gedanken,
wo du [G]heute Abend schl├?┬Ąfst,
ich dreh d[F]urch bei der Frage,
neben wen du dich legst,[G]
ich muss i[Am]mmer an dich denken,
ganz e[G]gal wer mich ber├?┬╝hrt,
ich hoffe [F]du denkst mal an mich,
wenn dich irgendwer verf├?┬╝hrt.
2.Strophe:
[Am]Ich hab seit Tagen nicht ge[G]weint,
ich komm schon voll gut klar alle[F]in,
ist okay was soll schon sein?[G]
[Am]Ich schlaf alleine auf der C[G]ouch,
in unserm Bett halt ich├?┬┤s nich[F]t aus,
is okay, das schaff ich auch...[G]
[Am]und ich koch morgens den Kaff[G]ee
wieder f├?┬╝r zwei ganz aus V[F]ersehen,
ist okay war nur aus Versehen...
[G]Und es ist f[Am]ast wie Knast in der Wohnung alleine,
die H[G]├?┬Ąlfte vom Bett ist immer noch deine[F]...
N.C.
Nichts ist okay,
gar nichts okay!
Refrain:
Ich werd ver[Am]r├?┬╝ckt bei dem Gedanken,
wo du [G]heute Abend schl├?┬Ąfst,
ich dreh d[F]urch bei der Frage,
neben wen du dich legst,[G]
ich muss i[Am]mmer an dich denken,
ganz e[G]gal wer mich ber├?┬╝hrt,
ich hoffe [F]du denkst mal an mich,
wenn dich irgendwer verf├?┬╝hrt.
3. Strophe:
U[G]nd ich fahre n[Am]achts, hellwach, allein durch die Stra├[G]?┼Şen,
seitdem du weg bist, kann ich nicht schlaf[F]en...
Nichts ist okay,
gar nichts okay!
[G]Und es ist f[Am]ast wie Knast in der Wohnung alleine,
die H[G]├?┬Ąlfte vom Bett ist immer noch [F]deine...
N.C.
Nichts ist okay,
gar nichts okay!
Refrain:
Ich werd ver[Am]r├?┬╝ckt bei dem Gedanken,
wo du [G]heute Abend schl├?┬Ąfst,
ich dreh d[F]urch bei der Frage,
neben wen du dich legst,[G]
ich muss i[Am]mmer an dich denken,
ganz e[G]gal wer mich ber├?┬╝hrt,
ich hoffe [F]du denkst mal an mich,
wenn dich irgendwer verf├?┬╝hrt.

Important: The song above is NOT stored on the Chordie server. The original song is hosted at www.azchords.com. Chordie works as a search engine and provides on-the-fly formatting. Chordie does not index songs against artists'/composers' will. To remove this song please click here.

Text color:
Chord color:
Chord grids: 
Font size:    
Page size: 

A5 Am F F5 G G5
Rate #1 of 4 versions

Login - add to songbook

SHARE PAGE  



You need to log in to post comments