Guitar Tabs, Chords and Lyrics
Server problems seems to be fixed. Chordie has been experiencing problems with songs disappearing. These issues now seems to be fixed, but still verifying the fix. If you find anything strange, please email admin@chordie.com.


Colour  Seal

Intro:
[1] [2] [3] [4] [5] [6] [1] [2] [3] [4] [5] [6]  
 
 e|-----------/-----------/
 B|-----------/-----------/
 G|-4-3----3-3/-4-3----5-5/
 D|-4-4----4-4/-4-4----4-4/ (middle finger)
 A|--6--6-----/--6--6-----/ (pinky)
 E|4-----4----/4-----4----/ (thumb)

(theme*)= 1 2 3 4 5 6 1 2 3 4 5 6 1 2 3 4 5 6 1 2 3 4 5 6
 
 e|-----------/-----------/-----------/-----------/
 B|-----------/-----------/-----------/-----------/
 G|-4-3----3-3/-4-3----5-5/-4-3----3-3/-4-3----5-5/
 D|-4-4----4-4/-4-4----4-4/-4-4----4-4/-4-4----4-4/
 A|--6--6-----/--6--6-----/--6--6-----/--6--6-----/
 E|4-----4----/4-----4----/4-----4----/4-----4----/

Oooooooooooooohh
(theme*)
Colour fades away
(theme*)
With a light descending on the day
(theme*)
Midnight sees your friend
(theme*)
Oh could you call his name, would you know his name
[Emaj7] I come [Bmaj7] here for your [Eb] love
But [Emaj7] God only [Bmaj7] knows
Chorus:
[Gm] Colo - [G#m] ur fades [Bmaj7] away [C#]
[Gm] Good ti - [G#m] mes here [Bmaj7] today [C#]
[Gm] Meanwhi - [G#m] le you [Bmaj7] would say [C#]
(theme*) (theme*)
I close my eyes
(theme*)
Colour fades away
(theme*)
Tell me who are you for anyway
(theme*)
Midnight is your friend
(theme*)
Will we see a beginning in the end
[Emaj7] God only [Bmaj7] knows, what we've [Ab] put in that paint
[Emaj7] God only [Bmaj7] knows
Chorus:
[Gm] Colo - [G#m] ur fades [Bmaj7] away [C#]
[Gm] Good ti - [G#m] mes here [Bmaj7] today,
Here most [C#] every day
[Gm] Meanwhi - [G#m] le you [Bmaj7] would say [C#]
I clo - [Gm] se my ey - [G#m] es
[Bmaj7] And dream of only [C#] yesterday
Chorus:
[Gm] Colo - [G#m] ur fades [Bmaj7] away [C#]
[Gm] Good ti - [G#m] mes here [Bmaj7] today,
Here most [C#] every day
[Gm] Meanwhi - [G#m] le you [Bmaj7] would say [C#]
Break:
That I clo - [F#] [-] [G#mi] [-]
[F#] [-] [G#mi] se my eyes [F#] [-] [G#mi] [-] [G#i]
 
 F# - G#mi - F# - G#mi - F# - G#mi - G#i 3x while fading out 

[F#/Eb] [G#i]  
 
 e|6-------6-------6-----------/
 B|----7-------7-------7-------/
 G|--8---8---8---8---8---8----5/ 2x while fading in
 D|--------------------------6-/
 A|-------------------------6--/
 E|------------------------4---/

[F#/Eb] Colour [G#i]
[F#/Eb] Fades to grey [G#i]
[Emaj7] I dre - [Bmaj7] am so ex - [G#] citing
Emaj7 Bmaj7 G# (theme*)
But I, I feel so bold
(theme*)
(theme*)
(Midnight, midnight)
(theme*)
(theme*)
(midnight, midnight)
(theme*)

Important: The song above is NOT stored on the Chordie server. The original song is hosted at www.azchords.com. Chordie works as a search engine and provides on-the-fly formatting. Chordie does not index songs against artists'/composers' will. To remove this song please click here.

Text color:
Chord color:
Chord grids: 
Font size:    
Page size: 

Ab Bmaj7 C# Eb Emaj7 F# G# G#m Gm
Rate #1 of 1 versions

Jango Player

Login - add to songbook

SHARE PAGE  




You need to log in to post comments