Guitar Tabs, Chords and Lyrics
Server problems seems to be fixed. Chordie has been experiencing problems with songs disappearing. These issues now seems to be fixed, but still verifying the fix. If you find anything strange, please email admin@chordie.com.


Crazy  Seal

 
 -----------------------------------------------------------------------------
 -----------------------------------------------------------------------------

Tuning: Standard
Chords:
Here are different ways of playing these chords. It sounds real nice, when
there are 2 or more guitars playing.
[Em] [G] [Asus4] [A] [Am] [C] [D] [Am] [Bm]  
 
 e|--0---3---0---0---0---0---2---5---2--|
 B|--0---3---3---2---1---1---3---5---3--|
 G|--0---0---2---2---2---0---2---5---4--|
 D|--2---0---2---2---2---2---0---7---0--|
 A|--2---2---0---0---0---3---x---7---2--|
 E|--0---3---x---x---x---x---x---5---x--|

[Em] [G] [Asus4] [A] [C] [D] [Am] [Bm]  
 
 e|--3---3---5---5---3---5---5---2--|
 B|--5---3---5---5---5---7---5---3--|
 G|--4---4---7---6---5---7---5---4--|
 D|--5---5---7---7---5---7---7---4--|
 A|--x---5---7---7---3---5---7---2--|
 E|--0---3---5---5---x---x---5---x--|

Capo 7th Fret (Chords relative to Capo):
[Em] [G] [Asus4] [A] [C] [D] [Am] [Bm]  
 
 e|--0---0---3---2---1---3---1---0--|
 B|--1---1---3---3---1---3---3---0--|
 G|--2---0---2---2---2---0---2---0--|
 D|--2---2---0---0---3---0---0---2--|
 A|--0---3---x---x---3---2---x---2--|
 E|--x---x---x---x---1---3---x---0--|

Intro: Em G Asus4 A
Verse 1:
[Em] Man decides after se[G]venty years
what he [Asus4]came here for is to unloc[A]k the door
[Em] While those around him criti[G]cize and sleep [Asus4] [A]
[Em] And through a fractal on a [G]breaking wall
I see [Asus4]you my friend and touch your face agai[A]n
[Em] Miracles will happen [G]as we speak[Asus4] [A]
Chorus :
[C] But we're never gonna sur[G]vive un[D]less we get little [A] crazy
[C] No we're never gonna sur[G]vive un[D]less we are a little [A] crazy
Verse 2:
[Em] Yellow people runnin[G]g through my head
one of them's [Asus4]got a gun to shoot the oth[A]er one
[Em] and yet together they were [G]friends at school
[Asus4] oh get it, get it, get[A] it, yeah
[Em] If I were there then you first [G]took the pill
them [Asus4]maybe, them maybe, them may[A]be, them maybe
[Em] Miracles will happen [G]as we speak [Asus4] [A]
Chorus:
[C] But we're never gonna [G] survive un[D]less we get little cr[A]azy
[C] No we're never gonna [G] survive un[D]less we are a little cr[A]azy
[C] No we're never gonna [G] survive un[D]less we get a little cr[A]azy [Em]
Bridge: 2x
In a [Am]sky full of people only [Bm]some want to fly
isn't that [C]crazy [D]
In a [Am]world full of people only [Bm]some want to fly
Isn't that [C]crazy ,crazy , [D]crazy, crazy [D]
Chorus:
[C] But we're never gonna surv[G]ive unl[D]ess we get little [A]crazy
[C] No we're never gonna sur[G]vive un[D]less we are a little [A] crazy [Em]

Important: The song above is NOT stored on the Chordie server. The original song is hosted at www.azchords.com. Chordie works as a search engine and provides on-the-fly formatting. Chordie does not index songs against artists'/composers' will. To remove this song please click here.

Text color:
Chord color:
Chord grids: 
Font size:    
Page size: 

A Am Asus4 Bm C D Em G
Rate #1 of 9 versions

Jango Player

Login - add to songbook

SHARE PAGE  



You need to log in to post comments