Guitar Tabs, Chords and Lyrics
Server problems seems to be fixed. Chordie has been experiencing problems with songs disappearing. These issues now seems to be fixed, but still verifying the fix. If you find anything strange, please email admin@chordie.com.


Freak  Seaway

- Intro Riff:
 
 eb|-------------------------------|
 Bb|----5-7----5-7------5------7---|
 Gb|------------------7------7-----|
 Db|--5------5-------------5-------|
 Ab|----------------5--------------| 3x
 Eb|-------------------------------|
 eb|-------------------------------|
 Bb|------5------7------5------7---|
 Gb|----7------7------7------7-----|
 Db|---------5-------------5-------|
 Ab|--5-------------5--------------| 1x
 Eb|-------------------------------|

- Intro:
[D] [A/C#] [G]  
[D] [A/C#] [G]  
[D] [A/C#] [G]  
[A/C#] [G] [D] [A]  
- Verse:
[D]Maybe I'm not the one who tries
[D]Living in a typical life, a typical lie
[D]Maybe I'm not losing my mind
[D]I could be the one that lasts this time
- Pre Chorus:
And I [A/C#]swear [D] [B] it happened in Portland[A/C#] [D] [G]
It came to me
[A/C#]f**k w[D]hat [B]you think is impor[A]tant[B] [A/C#]
- Chorus:
[D]Maybe I'm a freak and [A/C#]nobod[D]y knows my name
And n[A/C#]obody[D] knows gets that strange to me [A/C#]is or[D]dinary[A/C#] [D]
[B]So m[A]aybe I'm a fr[D]eak
But you freak you me
[D] [A/C#] (you fr[G]eak me out)
[D] [A/C#] (you fr[G]eak me out)
- Verse:
[D] I love the feeling when I sleep at night
[D]Distractions running through my mind
But still s[D]ometimes I need a place where I can feel alright
I hope that I can last this time
- Pre Chorus:
And I s[B]wear it happened in Portland
[A] [G]Your nightmares came to me witho[A]ut warning[B] [A/C#]
- Chorus:
So M[D]aybe I'm a freak and n[A/C#]obody[D] knows my name
And n[A/C#]obody[D] knows gets that strange to me [A/C#]is or[D]dinary[A/C#] [D] [B] [A]
Maybe I'm a fr[D]eak and n[A/C#]obody[D] knows my name
And n[A/C#]obody[D] knows gets that strange to me [A/C#]is or[D]dinary[A/C#] [D]
[B]So m[A]aybe I'm a fr[D]eak
But y[B]ou f[A/C#]reak you me
- Bridge:
So tell me w[G]hy it's so o[B]ut of t[A]he question [D]to [A]be o[B]ne o[A]f a k[G]ind
[B]To [A]be [D] [A] s[B]om[A]eone you l[G]ike
There's so m[B]uch m[A]ore to me t[D]han co[A]uld ever m[B]eet y[A]our e[D]yes
- Chorus:
 
 eb|-------------------------------|
 Bb|----5-7----5-7------5------7---|
 Gb|------------------7------7-----|
 Db|--5------5-------------5-------|
 Ab|----------------5--------------| 3x
 Eb|-------------------------------|
 eb|-------------------------------|
 Bb|------5------7-----------------|
 Gb|----7------7-------------------|
 Db|---------5---------------------|
 Ab|--5----------------------------| 1x
 Eb|-------------------------------|

(Play riff)
So maybe I'm a freak and nobody knows my name
And nobody knows gets that strange to me is ordinary
So M[D]aybe I'm a freak and n[A/C#]obody[D] knows my name
And n[A/C#]obody[D] knows gets that strange to me [A/C#]is or[D]dinary[A/C#] [D]
[B]So m[A]aybe I'm a fr[D]eak
But y[B]ou f[A/C#]reak you me
[D] [A/C#] (you fr[G]eak me out)
[D] [A/C#] (you fr[G]eak me out)
[D] [A/C#] (you fr[G]eak me out)
[A/C#] [G] M[D]aybe I[A]'m a fr[D]eak
Maybe I'm a fr[D]eak
So maybe I'm a fr[D]eak
But y[B]ou f[A/C#]reak you me o[D]ut
- Riff
 
 eb|-------------------------------|
 Bb|----5-7----5-7------5------7---|
 Gb|------------------7------7-----|
 Db|--5------5-------------5-------|
 Ab|----------------5--------------| 4x
 Eb|-------------------------------| 


Important: The song above is NOT stored on the Chordie server. The original song is hosted at www.azchords.com. Chordie works as a search engine and provides on-the-fly formatting. Chordie does not index songs against artists'/composers' will. To remove this song please click here.

Text color:
Chord color:
Chord grids: 
Font size:    
Page size: 

A A/C# B D G
Rate #1 of 2 versions

Jango Player

Login - add to songbook

SHARE PAGE  




You need to log in to post comments