Guitar Tabs, Chords and Lyrics
Server problems seems to be fixed. Chordie has been experiencing problems with songs disappearing. These issues now seems to be fixed, but still verifying the fix. If you find anything strange, please email admin@chordie.com.


Puddles  Seaway

- Verse:
Your l[D]ies, t[E]hey in[D]terest me b[E]ut I [B]can se[A]e right through them,
Your e[D]yes a[E]re con[D]fident b[E]ut they b[B]leed with c[A]ontradiction.
- Chorus:
[D] [B]You're making p[A]uddles on the floor,[D]
[B]Do yourself one[B], [A] clean yourself up.
- Chorus Riff:
 
 e|--5------------|--7-----5------|--5------------|--------------|
 B|--------7---5--|------------7--|--------7---5--|--8----7---5--|
 G|------7---7----|------7---7----|------7---7----|-----7---7----|
 D|---------------|---------------|---------------|--------------|
 A|---------------|---------------|---------------|--------------| (2x)
 E|---------------|---------------|---------------|--------------|

- Intro:
D F#m G (7x)
- Verse 2:
Your l[D]ies, t[E]hey fas[D]cinate m[E]e, st[B]ill I can s[A]ee right through them,
Your e[D]yes a[E]re beau[D]tiful b[E]ut they w[B]eep with de[A]speration.
- Chorus:
[D] [B]You're making p[A]uddles on the floor,[D]
[B]Do yourself one[B], [A] clean yourself up.
- Chorus Riff:
 
 e|--5------------|--7-----5------|--5------------|--------------|
 B|--------7---5--|------------7--|--------7---5--|--8----7---5--|
 G|------7---7----|------7---7----|------7---7----|-----7---7----|
 D|---------------|---------------|---------------|--------------|
 A|---------------|---------------|---------------|--------------| (2x)
 E|---------------|---------------|---------------|--------------|

- End:
D F#m G (11x)

Important: The song above is NOT stored on the Chordie server. The original song is hosted at www.azchords.com. Chordie works as a search engine and provides on-the-fly formatting. Chordie does not index songs against artists'/composers' will. To remove this song please click here.

Text color:
Chord color:
Chord grids: 
Font size:    
Page size: 

A B D E
Rate #1 of 2 versions

Jango Player

Login - add to songbook

SHARE PAGE  



You need to log in to post comments