Guitar Tabs, Chords and Lyrics
Update 25:10. 13:00. Site is back up running again. Songbooks are recovered. Woring on getting search back up..


Ocean  Sebadoh

 
 -------------------------------------------------------------------------------

OCEAN ?? Sebadoh
 
 -------------------------------------------------------------------------------

Capo 1st fret
Main riff (shown as G chord below):
 
 e|---------------------3-----------------------------------------------------|
 B|---------------------3-----------------------------------------------------|
 G|--------0------------0-----------------------------------------------------|
 D|------0---2-2-2-0----------------------------------------------------------|
 A|----2----------------------------------------------------------------------|
 E|--3---------------3--------------------------------------------------------|

So you [G]think you're in the middle of the ocean
[G]Stranded on an island of your own
Or [G]stuck on the top of a mountain
Either [D]way you're gonna [Am7]say you're all [D]alone
And I [G]hesitate to say that you're a liar
I [G]never tell the truth myself
But I [G]tried to chase you down and I got tired
So I'm [D]leaving you to [Am7]be with someone [D]else
'Cause you [Em]never wanna hook up in the [G]middle
And I'd [Em]meet you there to talk if you [G]would show
But you [Em]answer every question with a [G]riddle
And re[D]fuse to even [Am7]choose to let me [D]go
[D] [Am7] [D]  
It [G]used to be I'd tell you all my secrets
[G]Giving you the credit you deserved
I [G]guess you didn't care to lose or keep it
And we [D]never quite co[Am7]nnected from the [D]first
And I [Em]wish I had a way to make it[G] better
To [Em]rearrange the world and make [G]you smile
But it's [Em]dumb to even think I had that [G]power
And we [D]haven't been that [Am7]close in a [D]while
[D] [Am7] [D]  
Guitar solo:
 
 e|--------------------------------------------2-2-3-0-----------------------|
 B|--------------------------------------------0-0-0-0-3---0-----------------|
 G|----------------------------------------------------0---0-----------------|
 D|----0-/5-0??7-0-9-9-9-9---0-/5-0-7-0-5-5-5-5---------0---0-----------------|
 A|--------------------------------------------------------------------------|
 E|--3--------------------3--------------------------------------------------|
 e|-----------------------2-2-3-0----------10-10-----------------------------|
 B|-----------------------0-0-0-0-3-3-0----0--0--13-12-8--8--10-8------------|
 G|-------------------------------0-0-0----------0--0--0??-0--0--0------------|
 D|----0-/5-0??7-0-9-9-9-9---------0-0-0--------------------------------------|
 A|--------------------------------------------------------------------------|
 E|--3-----------------------------------------------------------------------|
 e|-----2-2-3-0----------10-10---------------------2-2-3-0-------------------|
 B|-----0-0-0-0-3-3-0----0--0--13-12-8--8--10-8----0-0-0-0-3-3-0-------------|
 G|-------------0-0-0----------0--0--0??-0--0--0------------0-0-0-------------|
 D|-------------0-0-0--------------------------------------0-0-0-------------|
 A|--------------------------------------------------------------------------|
 E|--------------------------------------------------------------------------|

And [Em]I don't even wanna try to [G]name it
Ex[Em]plain it for the one who couldn't [G]care
'Cause all that [Em]matters is the way you choose to[G] frame it
[D] [Am7] [D]  
And I [G]hesitate to say that you're a liar
I [G]never tell the truth myself
But I [G]tried to chase you down and I got tired
So I'm [D]leaving you to [Am7]be with someone [D]else
'Cause you [Em]never wanna hook up in the [G]middle
And I'd [Em]meet you there to talk if you [G]would show
But you [Em]answer every question with a [G]riddle
And re[D]fuse to even [Am7]choose to let me [D]go
[D] [Am7] [D]  

Important: The song above is NOT stored on the Chordie server. The original song is hosted at www.azchords.com. Chordie works as a search engine and provides on-the-fly formatting. Chordie does not index songs against artists'/composers' will. To remove this song please click here.

Text color:
Chord color:
Chord grids: 
Font size:    
Page size: 

Am7 D Em G
Rate #1 of 1 versions

Jango Player

Login - add to songbook

SHARE PAGE  



You need to log in to post comments