Guitar Tabs, Chords and Lyrics
Update 25:10. 13:00. Site is back up running again. Songbooks are recovered. Woring on getting search back up..


Five Years  Seu Jorge

Chords:
Bar G G Dsus4/F Em7 Em9 Esus C C?
 
 e|---3------3------3------3------2------0------0------3---|
 B|---3------3------3------3------3------0------1------1---|
 G|---4------0------2------0------0------2------2------2---|
 D|---5------0------0------2------2------2------0------0---|
 A|---5------2------x------2------2------0------3------3---|
 E|---3------3------2------0------0------0------x------x---|

[Am] [Em+6] [E7sus4] [D] [Dsus] [A] [Em]  
 
 e|---x------x------0------2------3------x------0---|
 B|---1------1------0------3------3------2------2---|
 G|---2------0------2------2------2------2------2---|
 D|---2------2------0------0------0------2------0---|
 A|---0------2------2------x------x------0------0---|
 E|---x------x------0------x------x------x------0---|

Intro:
Bar G (mute) (mute) (mute) (mute)
 
 e|---3-3-3-3-3--x-x-x--3-3-3--x-x-x--3-3-3--x-x-x--3-3-3--x-x-x--12~3---|
 B|---3-3-3-3-3--x-x-x--3-3-3--x-x-x--3-3-3--x-x-x--3-3-3--x-x-x--x--2---|
 G|---4-4-4-4-4--x-x-x--x-x-x--x-x-x--x-x-x--x-x-x--x-x-x--x-x-x--x--0---|
 D|---5-5-5-5-5--x-x-x--x-x-x--x-x-x--x-x-x--x-x-x--x-x-x--x-x-x--x--0---|
 A|---5-5-5-5-5--x-x-x--x-x-x--x-x-x--x-x-x--x-x-x--x-x-x--x-x-x--x--3---|
 E|---3-3-3-3-3--x-x-x--x-x-x--x-x-x--x-x-x--x-x-x--x-x-x--x-x-x--x--3---|

[G]O tempo eu que eu fico[Dsus4/F] [Em7] [Em9]
[Em9]A viver pelos mares[Esus]
Esus C C? G
Mergunhando profundo Por recifes e corais
[G]E a lição nesse mundo[Dsus4/F] [Em7] [Em9]
[Em9]Pesquisar animais[Esus]
[Esus]Mergulhando no escuro[C]
C C? G
Por perigos reais
[G]E é por isso que agora Eu estou aqui[G]
[Dsus4/F] Nada [Em7]vai me tentar a[Em9] fazer desistir[Esus]
[Esus]Eu nao posso dormir Com você nos meus[C] sonhos
C C?
Já conheço seu dorso Seu olhar tão medonho
C? Am Am Em+6 C C?
E a sonhar que eu fico
C? Am Am Em+6 C
Muito tempo fico
[C]Nunca fico [G]rico[C]
[C]Então por isso eu[D] grito[Dsus] [D]
D Esus E7sus4 C C? G
Hoje eu te fito
[G]Sob o mar ou horizonte[Dusu4/F] [Em7] [Em9]
[Em9]Fico a admirar lugares[Esus]
[Esus]Quanto o vento está calmo
[E7sus4] Tudo [C]fica em paz[G]
[G]Eu estou nesta trilha[Dsus4/F] [Em7] [Em9]
[Em9]Não sei quanto tempo faz[Esus]
[Esus]Eu não vejo sentido
E7sus4 C C?
Mas os teus ideias
[G]E agora que eu fiz um acorde maior
[Em7]Para ca[Em9]ntar pra você Minha angústia e dor
[Esus]Eu nao quero viver
[Esus]Muito triste e só
C C?
Venha ser meu amigo
C?
Venha ser meu amor
C? G
Então por isso
[G]Five years
[G]Quando nao vi nada nesses
[Em7]Five [Em9]years
[Em9]So no mar azul ? minha vida há
[C]Fiv[Esus]e years
[Esus]E de norte a sul ? meu dever há
C C?
Five years
C?
Entao eu vivo por ai
[G]Five years
[G]E quase nao vi nada nesses
[Em7]Five [Em9]years
[Em9]Estar no mar azul ? meu viver há
[Esus]Five years
[Esus]E de norte a sul ? minha sina
C C?
Five years
(Oh oh)
[G]Five years
[G]E de norte a [Em7]sul ? minha sina
[A]Five years
[A]Quase nao vi nada nesses
[Esus]Five years
[Esus]E de norte a sul ? meu viver há
C C?
Five years
(Oh oh)
[G]Five years
(Oh oh oh)[Em]
[Em]Eh ah
[Esus]Five years
C C?
(Oh oh oh)
[G]Five years
Outro:
(mute to beat)
 
 e|---3-3-3--x-x-x--3-3-3--x-x-x--3-3-3-3--3--3-3-3-3--3--x-x-x-x-x-x-x---|
 B|---3-3-3--x-x-x--3-3-3--x-x-x--3-3-3-3--3--3-3-3-3--3--x-x-x-x-x-x-x---|
 G|---0-0-0--x-x-x--0-0-0--x-x-x--0-0-0-0--0--0-0-0-0--0--x-x-x-x-x-x-x---|
 D|---0-0-0--x-x-x--0-0-0--x-x-x--x-x-x-x--0--x-x-x-x--0--x-x-x-x-x-x-x---|
 A|---2-2-2--x-x-x--2-2-2--x-x-x--x-x-x-x--2--x-x-x-x--2--x-x-x-x-x-x-x---|
 E|---3-3-3--x-x-x--3-3-3--x-x-x--x-x-x-x--3--x-x-x-x--3--x-x-x-x-x-x-x---|

- PLease Note -
In some cases throughtout the song I wrote that the chord change is before the next line
the song, In some cases this is true but in others it may not be so please hear the
before playing it. Also In my intro and outro I did not write every strum, so yet again
hear the song before trying to play. Finally this is my first tabs so dont be to harsh.
P.S. This tab is based on what he plays in the movie not what he plays in the studio
Please leave me feedback!

Important: The song above is NOT stored on the Chordie server. The original song is hosted at www.azchords.com. Chordie works as a search engine and provides on-the-fly formatting. Chordie does not index songs against artists'/composers' will. To remove this song please click here.

Text color:
Chord color:
Chord grids: 
Font size:    
Page size: 

A Am C D Dsus Dsus4/F E7sus4 Em Em7 Em9 Esus G
Rate #2 of 3 versions

Jango Player

Login - add to songbook

SHARE PAGE  



You need to log in to post comments