Guitar Tabs, Chords and Lyrics
Major upgrade!! After one year development the new version of Chordie is now online! Please give feedback.


I'm Gonna Getcha Good!  Shania Twain

*play with Capo on 1 to match recording*
Intro:
 
 E-------------------
 B-------------------
 G-------------------
 D-------------------
 A----0----0-----0---
 E--3b--0h3------5\-- <--slide all the way down
 E--------------------------------------
 B----------------1------------1p0------ <--(repeat twice)
 G----------0h2-2---2----0h2-2-----0---- *on the record these notes
 D--------------------2----------------- are played by the digitalized
 A-------------------------------------- steel guitar, you can play them
 E-------------------------------------- like this on guitar if you want

let's go...
Verse 1:
 
 E------------------------------------------------------------
 B------------------------------------------------------------
 G------------------------------------------------------------
 D------------------------------------------------------------
 A-----------------2h3-0-----0--------------------0-----0-----
 E-----------------------0h3-------------------3b---0h3-------

..for the weekend ...for a night
 
 E------------------------------------------------------------
 B------------------------------------------------------------
 G------------------------------------------------------------
 D------------------------------------------------------------
 A------------2h3-3-----0---------------2h3-0-----0-----------
 E------------------0h3---3h5-5-5-------------0h3-------------

..interested, if I can...
 
 E-----------------------------------------------------------
 B-----------------------------------------------------------
 G-----------------------------------------------------------
 D-----------------------------------------------------------
 A--------2h3-0-----0--------------2h3-3-0-2h3-0-------------
 E--------------0h3------------------------------------------

..serious ...baby I am
 
 E-----------------------------------------------------------
 B-----------------------------------------------------------
 G-----------------------------------------------------------
 D-----------------------------------------------------------
 A--2h3-3-----------------------------0--2h3-3-0-2h3-0-------
 E--------------------------3h5-5-0h3------------------------

...I'm gonna get me some land oh yeah
(Chorus part is just all strummed)
Riff after chorus:
 
 E-----------------------------------
 B-----------------------------------
 G-----------------------------------
 D-----------------------------------
 A-----0-----0-----2h3-3-----0-------
 E--3b---0h3-------------0h3---3-----

Verse 2:
 
 E------------------------------------------------------------
 B------------------------------------------------------------
 G------------------------------------------------------------
 D------------------------------------------------------------
 A-----------2h3-0-----0-------------------2h3-3-0-2h3-0------
 E-----------------0h3---3------------------------------------

..planned it ...it's gonna be
 
 E------------------------------------------------------------
 B------------------------------------------------------------
 G------------------------------------------------------------
 D------------------------------------------------------------
 A---------2h3-3--------------------------0----2h3-3-0-2h3-0--
 E----------------------------------3h5-5---------------------

...you're gonna fall in love with me yeah
Riff before last chorus (after bridge):
 
 E------------------------------------------------
 B------------------------------------------------
 G------------------------------------------------
 D------------------------------------------------
 A-----0-----0----------------------------0----0--
 E--3b---0h3---------------------------3b---0h3---

yeah, yeah, yeah, yeah
The lead part at the end of the last chorus:
 
 E----------------------------------------------------------
 B----------------------------------------------------------
 G----------------------------------------------------------
 D----------------------------------------------------------
 A------------5h7-5-3-5------------------------5h7-5-3-1----
 E----------------------------------------------------------

I'm gonna getcha... I'm gonna getcha real good
 
 E-------------------------
 B-------------------------
 G-------------------------
 D-------------------------
 A------------5h7-5-3-5----
 E-------------------------

Oh you can betcha...
**Capo 1 for recorded key**
Intro: Am C G (x2)
Don't [Am]want you for the weekend,[C] [G] don't [Am]want you for a night[C] [G]
I'm [Am]only interested, [C]if I can h[G]ave you for l[Am]ife, yeah[C] [G]
I k[Am]now I sound serious,[C] [G] and [Am]baby I am[C] [G]
You're a [Am]fine piece of real esate, and I[C]'m gonna [G]get me some l[Am]and, [C] [G]oh yeah
Pre-Chorus:
[G]Just don't try to r[F]un, honey
[G]Love can be f[F]un
[C]There's no need to be a[Dm]lone
When you f[F]ind that someone
Chorus:
[C]I'm gonna getcha while I [G]gotcha in sight
[Am]I'm gonna getcha if it t[F]akes all night
[C]You can betcha by the t[G]ime I say go
You'll [F]never say no
[C]I'm gonna getcha it's a [G]matter of fact
[Am]I'm gonna getcha don't you w[F]orry 'bout that
[C]You can bet your bottom [G]dollar in time
You're [F]gonna be mine
Just like I s[G]hould, I'll getcha good[Am] [C] [G]
[Am]I've already planned it[C], [G] here's [Am]how it's gonna be[C] [G]
I'm [Am]gonna love you and you're g[C]onna fall in l[G]ove with [Am]me, yeah[C] [G]
REPEAT PRE-CHORUS
REPEAT CHORUS
[Am]Yeah I'm gonna getcha [C]baby[G]
[Am]I'm gonna knock on woo[C]d[G]
[Am]I'm gonna getcha so[C]mehow h[G]oney
[Am]I'm gonna make it goo[C]d[G]
REPEAT PRE-CHORUS
REPEAT CHORUS
Chords:
Am = x02210
C = x32010
Dm = xx0231
F = 133211(bar chord) or xx3211
G = 320003

Important: The song above is NOT stored on the Chordie server. The original song is hosted at www.azchords.com. Chordie works as a search engine and provides on-the-fly formatting. Chordie does not index songs against artists'/composers' will. To remove this song please click here.

Text color:
Chord color:
Chord grids: 
Font size:    
Page size: 

Am C Dm F G
Rate #1 of 3 versions

Login - add to songbook

SHARE PAGE  




You need to log in to post comments