Guitar Tabs, Chords and Lyrics
Update 25:10. 13:00. Site is back up running again. Songbooks are recovered. Woring on getting search back up..


Daddy's Little Man  Shenandoah

Daddy"s Little Man
By Shenandoah
 
 ---------------------------------------------------------------------------------------------------

Just adding the intro and some fingering to (lmofle's) tab. Thanks for posting the chords & lyrics.
Please make any additions or corrections as nessecary... Golfdoc
 
 ---------------------------------------------------------------------------------------------------

D/C# - X40232
D/B - X20232
D/A - X00232
G/F# - 2X0003
Bm/A ‚?? X04432
Intro (Capo III Fret)
[D/A] [D/C#] [D/B] [D/A]  
 
 E--------0------------0---------0----------0--------
 D---------3--------3--3---------3-------3--3-------
 G------2----------2-----------2---------2----------- (Play 2x) Listen to the song for the rythem
 D---0----------0-----------0---------0-------------
 A--0----------4-----------2---------0---------------
 E---------------------------------------------------

N[D/A]ow I lay me down to [D/C#]sleep
 
 E-----------0-------------------0---------------
 D-------------3-------------3----3-------------
 G--------2---------------2----------------------
 D----0---------------0-------------------------
 A--0---------------4----------------------------
 E-----------------------------------------------

I[D/B] pray to the Lord m[D/A]y baby's soul to k[D]eep
 
 E-----------0------------------0---------------0--0h2-----
 D-------------3------------3----3----------3-------------
 G--------2---------------2----------------2---------------
 D----0---------------0----------------0------------------
 A--2---------------0--------------------------------------
 E---------------------------------------------------------

A[A]nd thats all I ask
 
 E---------------------------------------------------
 D--------------------------------------------------
 G--------------------------------------------------- (Couldn't figure out)
 D--------------------------------------------------
 A---------------------------------------------------
 E---------------------------------------------------

N[D]ow he believes in the G[D/C#]olden Rule
 
 E-------------0-----------------------0---------------
 D---------------3-----------------3----3-------------
 G----------2------------------2-----------------------
 D-----0------------------0---------------------------
 A--0------------------4-------------------------------
 E-----------------------------------------------------

S[D/B]anta and the Old La[D/A]dy who lived in a sh[D]oe
 
 E-----------0------------------0---------------0--0h2----
 D-------------3------------3----3----------3------------
 G--------2---------------2----------------2--------------
 D----0---------------0----------------0-----------------
 A--2---------------0-------------------------------------
 E--------------------------------------------------------

I'm his [Em]guiding hand, and [G]he's my best [D]friend
 
 E--------------------------------------------------------
 D-------------------------------------------------------
 G-------------------------------------------------------- (Couldn't figure out)
 D-------------------------------------------------------
 A--------------------------------------------------------
 E--------------------------------------------------------

Now he is just a little boy
We build bridges with nothing more than tinker-toys
that we'll cross again
He stumbles through the living room doing his best
To fill his daddy's shoes
Yes he wants to be just like me.
chorus
[A]In his eyes I'm a [D]hero
[A]But he don't know how that scares [D]me
I'm [G]so much [G/F#]less than a [Em]Sup[A]er[D]man
But for [C]him I'll [C/B]try to [A]be
Bridge:
Cause one [Bm]day he'll be gone [Bm/A]so far from home
To [G]old to [A]hold my [Bm]hand
And I'll be his [G]big[G/F#]gest [Em]fan
And he'll [G]still be [G/F#]Daddy's [Em]lit[A]tle [D]man
He climbs in bed with mister bear
Closes his eys to say his bed time prayer.
He says "Daddys great and God is good,
let us thank him for our food." and
God understood, he knows how children do
God was a daddy too.
chorus
[A]In his eyes I'm a [D]hero
[A]But he don't know how that scares [D]me
I'm [G]so much [G/F#]less than a [Em]Sup[A]er[D]man
But for [C]him I'll [C/B]try to [A]be
Bridge:
Cause one [Bm]day he'll be gone [Bm/A]so far from home
To [G]old to [A]hold my [Bm]hand
And I'll be his [G]big[G/F#]gest [Em]fan
And he'll [G]still be [G/F#]Daddy's [Em]lit[A]tle [D]man

Important: The song above is NOT stored on the Chordie server. The original song is hosted at www.azchords.com. Chordie works as a search engine and provides on-the-fly formatting. Chordie does not index songs against artists'/composers' will. To remove this song please click here.

Text color:
Chord color:
Chord grids: 
Font size:    
Page size: 

A Bm Bm/A C C/B D D/B D/C# Em G G/F#
Rate #1 of 2 versions

Login - add to songbook

SHARE PAGE  




You need to log in to post comments